» » »

A Day To Remember, 2nd Sucks Tabs (ver.2)

Artists:  A B C D E F G H I J K L M N O P Q R S T U V W X Y Z # 

2nd Sucks Tabs (ver.2)

A Day To Remember Tabs
 Rating:
3.4/5 (5 votes)
2nd Sucks lessons Tabs too difficult? Try these video lessons and learn fast
                -----------------------------------------------------------------------------
                           2nd Suck - A Day To Remember
-----------------------------------------------------------------------------
all rights go to A Day To Remember
if there are any mistakes let me know and add them in the comments
Tuning: Drop A#

Intro
(Guitar 1)
(not sure how many times it is played, just listen and you will get it,also play through verse)
e|-----------------------------------------------------|
B|----6----------11----5-------------------------------|
G|----9----------14----8-------------------------------|
D|-----------------------------------------------------|
A|-----------------------------------------------------|
E|-----------------------------------------------------|

Verse
(Guitar 2)
( its all 1's the entire time, strumming pattern is easy)
e|-----------------------------------------------------|
B|-----------------------------------------------------|
G|-----------------------------------------------------|
D|-----------------------------------------------------|
A|---1-1-1---1-1---------------------------------------|
E|---1-1-1---1-1---------------------------------------|
     . . . . .

 Chorus
  (both guitars)
e|---------------------------------------------------|
B|---------------------------------------------------|
G|-------------------------------------5-5/-8--------|(x2)
D|-------------------------------------3-3--6--------|
A|-0-----------3-3/6--0------------------------------|
E|-0-----------3-3-6--0------------------------------|

Repeat Verse
Repeat Chorus

Verse 3
(Guitar 1)
(only one guitar plays this part, ill add the second part later, listen for strumming pattern)

e|-----------------------------------------------------------------|
B|-----------------------------------------------------------------|
G|-----------------------------------------------------------------|
D|-----0---------0-0-0---------------------------------------------|
A|-----0---------0-0-0---------------------------------------------|
E|-----0---------0-0-0---------------------------------------------|
       .         . . .


breakdown is all open on the top string (palm muted)


Bridge
(Guitar 1)
e|-----------------------------------------------------------------|
B|-----------------------------------------------------------------|
G|---7----------10--------14---------------------------------------|
D|------x8----------x8---------x16---------------------------------| 
A|---5-----------8--------12---------------------------------------|
E|-----------------------------------------------------------------|



breakdown is all open on the top 2 strings (palm muted)

Repeat Chorus
            
Submit corrections

comments powered by Disqus
↑ Back to top | A Day To Remember Tabs for 2nd Sucks. Lyrics for acoustic guitar and electric guitar. Tablatures and chords are parodies/interpretations of the original songs. You may use it for private study, scholarship, research or language learning purposes only