>
 >
Screaming For A Love Bite

Screaming For A Love Bite Guitar Tabs

Accept - Screaming For A Love Bite chords, tabs, tablatures, lyrics

Guitar lessons | Add/correct | Request | Top 50 tabs Artists:  A B C D E F G H I J K L M N O P Q R S T U V W X Y Z 0-9

Screaming For A Love Bite Guitar Tabs – Accept

CD, Sheet music, Poster

Do you like Screaming For A Love Bite? Share with your friends now
Bass TabsTabs

SCREAMING FOR A LOVE-BITE
As recorded by Accept
(From the 1985 Album METAL HEART)

        

Words and Music by Accept

Gtr I (E A D G B E) - 'Dist'
Gtr II (E A D G B E) - 'Dist'
Gtr III (E A D G B E) - 'Overdriven'
Gtr IV (E A D G B E) - 'Overdriven'

 Intro
  Q=140
    C#5         B5                  E/Ab        A5                  C#5
 1/4   4/4
  Gtr I                                                   Gtrs I, II
  E E   +E  E E E Q  Q    H    Q  E E   +E  E E E Q  Q    H    Q  E E
|-----|-----------------|-------------|-----------------|---------------|
|-----|-----------------|-------------|-----------------|---------------|
|---6-|-(6)-6-6-4-4-----|-------------|-----------------|-----------6---|
|---6-|-(6)-6-6-4-4-----|-------------|-----------------|-----------6---|
|---4-|-(4)-4-4-2-2-----|-----------7-|-(7)-7-7-7-7-----|-----------4---|
|-----|-----------------|-----------4-|-(4)-4-4-5-5-----|---------------|


      C#5 B5                  E/Ab        A5                  C#5
  +E  E E E Q  Q    H    Q  E E   +E  E E E Q  Q    H    Q  E E
|-----------------|-------------|-----------------|--------------|
|-----------------|-------------|-----------------|--------------|
|-(6)-6-6-4-4-----|-------------|-----------------|-----------6--|
|-(6)-6-6-4-4-----|-------------|-----------------|-----------6--|
|-(4)-4-4-2-2-----|-----------7-|-(7)-7-7-7-7-----|-----------4--|
|-----------------|-----------4-|-(4)-4-4S5-5-----|--------------|


      C#5 B5                  E/Ab        A5
                                                  6/4
  Gtr I
                                                             PM------------|
  +E  E E E Q  Q    H    Q  E E   +E  E E E H      +H        E E E E E E E E
|-----------------|-------------|----------------|---------------------------|
|-----------------|-------------|----------------|---------------------------|
|-(6)-6-6-4-4-----|-------------|----------------|---------------------------|
|-(6)-6-6-4-4-----|-------------|----------------|---------------------------|
|-(4)-4-4-2-2-----|-----------7-|-(7)-7-7-7-7----|-(7)-------7-7-7-7-7-7-7-7-|
|-----------------|-----------4-|-(4)-4-4S5-5----|-(5)-------5-5-5-5-5-5-5-5-|
|
| Gtr II
|                                                   PM---------------------|
| +E  E E E Q  Q    H    Q  E E   +E  E E E H       E  E E E E E E E E E E E
|-----------------|-------------|----------------|---------------------------|
|-----------------|-------------|----------------|---------------------------|
|-(6)-6-6-4-4-----|-------------|----------------|---------------------------|
|-(6)-6-6-4-4-----|-------------|----------------|---------------------------|
|-(4)-4-4-2-2-----|-----------7-|-(7)-7-7-7-7----|--7--7-7-7-7-7-7-7-7-7-7-7-|
|-----------------|-----------4-|-(4)-4-4S5-5----|--5--5-5-5-5-5-5-5-5-5-5-5-|


 Pre-Verse
      E/B EsuE/BB    B     E/B            E/B EsuE/BB    B     E/B
 4/4
  Gtrs I, II
  PM|   PM     PM|     PM             PM|   PM     PM|     PM
  E E E E  E E E E   E E E E +H       E E E E  E E E E   E E E E +H
|------------------|----------------|------------------|----------------|
|-----9---10-9-----|-7---7-9-(9)----|-----9---10-9-----|-7---7-9-(9)----|
|-----9----9-9-----|-8---8-9-(9)----|-----9----9-9-----|-8---8-9-(9)----|
|-----9----9-9-----|-9---9-9-(9)----|-----9----9-9-----|-9---9-9-(9)----|
|------------------|----------------|------------------|----------------|
|-0-0---0------0-0-|---0------------|-0-0---0------0-0-|---0------------|


      E/B EsuE/BB    B     E/B            E/B EsuE/BB    B     E/B
  PM|   PM     PM|     PM             PM|   PM       PM
  E E E E  E E E E   E E E E +H       E E E E  E E E E   E E E E +H
|------------------|----------------|------------------|----------------||
|-----9---10-9-----|-7---7-9-(9)----|-----9---10-9-----|-7---x-9-(9)----||
|-----9----9-9-----|-8---8-9-(9)----|-----9----9-9-----|-8---x-9-(9)----||
|-----9----9-9-----|-9---9-9-(9)----|-----9----9-9-----|-9---x-9-(9)----||
|------------------|----------------|------------------|----------------||
|-0-0---0------0-0-|---0------------|-0-0---0--------0-|----------------||


   Verse
    $
        E5/B  B       E5/B  B              E5/B  B       E5/B  B        A5
    PM|         PM|                    PM|         PM|
    E E E E E E E E   E E E E +H       E E E E E E E E   E E E E +Q   E E
||------------------|----------------|-----------------|------------------|
||o-----5---5-4-----|-5---5-4-(4)----|-----5---5-4-----|-5---5-4-(4)------|
||------4---4-4-----|-4---4-4-(4)----|-----4---4-4-----|-4---4-4-(4)----2-|
||------------------|----------------|-----------------|----------------2-|
||o-4-4---------4-4-|----------------|-4-4---------4-4-|----------------0-|
||------------------|----------------|-----------------|------------------|


               B5                   E5/B  B
                                PM|         PM|
  +H.      +E  E   +W           E E E E E E E E
|----------------|------------|-----------------|
|----------------|------------|-----5---5-4-----|
|-(2)------(2)-4-|-(4)--------|-----4---4-4-----|
|-(2)------(2)-4-|-(4)--------|-----------------|
|-(0)------(0)-2-|-(2)--------|-4-4---------4-4-|
|----------------|------------|-----------------|


 1.                 2.
  E5/B  B            E5/B  B        C#5
  E E E E +H         E E E E +Q   E E
|-----------------||-------------------||
|-5---5-4-(4)----o||-5---5-4-(4)-------||
|-4---4-4-(4)-----||-4---4-4-(4)----6--||
|-----------------||----------------6--||
|----------------o||----------------4--||
|-----------------||-------------------||


 Pre-Chorus
      C#5 B5                  E/Ab        A5                  C#5
  +E  E E E H      +H.      E E   +E  E E E H      +H.      E E
|----------------|--------------|----------------|---------------|
|----------------|--------------|----------------|---------------|
|-(6)-6-6S4-4----|-(4)----------|----------------|------------6--|
|-(6)-6-6S4-4----|-(4)----------|----------------|------------6--|
|-(4)-4-4S2-2----|-(2)--------7-|-(7)-7-7-7-7----|-(7)--------4--|
|----------------|------------4-|-(4)-4-4S5-5----|-(5)-----------|


      C#5 B5                  E/Ab        A5
                                                     6/4
                                              PM----------------------------|
  +E  E E E H      +H.      E E   +E  E E E E E E E   E E E E E E E E E E E E
|----------------|--------------|-------------------|-------------------------||
|----------------|--------------|-------------------|-------------------------||
|-(6)-6-6S4-4----|-(4)----------|-------------------|-------------------------||
|-(6)-6-6S4-4----|-(4)----------|-------------------|-------------------------||
|-(4)-4-4S2-2----|-(2)--------7-|-(7)-7-7-7-7-------|-7-7-7-7-7-7-7-7-7-7-7-7-||
|----------------|------------4-|-(4)-4-4S5-5-5-5-5-|-5-5-5-5-5-5-5-5-5-5-5-5-||


 Chorus
      E/B EsuE/BB    B     E/B            E/B EsuE/BB    B     E/B
 4/4
  PM|   PM     PM|     PM             PM|   PM     PM|     PM
  E E E E  E E E E   E E E E +H       E E E E  E E E E   E E E E +H
|------------------|----------------|------------------|----------------|
|-----9---10-9-----|-7---7-9-(9)----|-----9---10-9-----|-7---7-9-(9)----|
|-----9----9-9-----|-8---8-9-(9)----|-----9----9-9-----|-8---8-9-(9)----|
|-----9----9-9-----|-9---9-9-(9)----|-----9----9-9-----|-9---9-9-(9)----|
|------------------|----------------|------------------|----------------|
|-0-0---0------0-0-|---0------------|-0-0---0------0-0-|---0------------|


                                                                 D.S.
      E/B EsuE/BB    B     E/B            E/B EsuE/BB    B     E/B
  PM|   PM     PM|     PM             PM|   PM       PM
  E E E E  E E E E   E E E E +H       E E E E  E E E E   E E E E +H
|------------------|----------------|------------------|-----------------||
|-----9---10-9-----|-7---7-9-(9)----|-----9---10-9-----|-7---x-9-(9)-----||
|-----9----9-9-----|-8---8-9-(9)----|-----9----9-9-----|-8---x-9-(9)-----||
|-----9----9-9-----|-9---9-9-(9)----|-----9----9-9-----|-9---x-9-(9)-----||
|------------------|----------------|------------------|-----------------||
|-0-0---0------0-0-|---0------------|-0-0---0--------0-|-----------------||


 Bridge
      E/B EsuE/BB    B     E/B            E/B EsuE/BB    B     E/B      C#5
  PM|   PM     PM|     PM             PM|   PM     PM|     PM
  E E E E  E E E E   E E E E +H       E E E E  E E E E   E E E E +H
|------------------|----------------|------------------|-------------------|
|-----9---10-9-----|-7---7-9-(9)----|-----9---10-9-----|-7---7-9-(9)-------|
|-----9----9-9-----|-8---8-9-(9)----|-----9----9-9-----|-8---8-9-(9)-------|
|-----9----9-9-----|-9---9-9-(9)----|-----9----9-9-----|-9---9-9-(9)-------|
|------------------|----------------|------------------|-------------------|
|-0-0---0------0-0-|---0------------|-0-0---0------0-0-|---0---------------|
|
| Gtr III
| W                  W                W                  H        Q   E E
|------------------|----------------|------------------|-------------------|
|------------------|----------------|------------------|-------------------|
|------------------|----------------|------------------|----------------6--|
|------------------|----------------|------------------|----------------6--|
|------------------|----------------|------------------|----------------4--|
|------------------|----------------|------------------|-------------------|


                      B5                      A
   PM-|   PM               PM-|   PM
   E  E E E  E Q.          E  E E E  E Q.
|-----------------------|-----------------------|
|-------9---10-9--------|-------9---10-9--------|
|-------9----9-9--------|-------9----9-9--------|
|-------9----9-9--------|-------9----9-9--------|
|-----------------------|-----------------------|
|--0--0---0-------------|--0--0---0-------------|
|
| +H.             +E  E   +H.             +E  E
|-----------------------|-----------------------|
|-----------------------|---------------------2-|
|-(6)-------------(6)-4-|-(4)-------------(4)-2-|
|-(6)-------------(6)-4-|-(4)-------------(4)-2-|
|-(4)-------------(4)-2-|-(2)-------------(2)-0-|
|-----------------------|-----------------------|


                        B5
   PM-|   PM
   E  E E E  E Q.     E E E E E E E  E
|-------------------|-------------------|
|-------9---10-9----|-------------------|
|-------9----9-9----|---4---4---4----4--|
|-------9----9-9----|---4---4---4----4--|
|-------------------|---2---2---2----2--|
|--0--0---0---------|-------------------|
|
| +W                  E E E E E E E  E
|-------------------|---------------19--|
|-(2)---------------|-------------------|
|-(2)---------------|---4---4---4----4--|
|-(2)---------------|---4---4---4----4--|
|-(0)---------------|---2---2---2----2--|
|-------------------|-------------------|


 Guitar Solo
        B         E/C#                 A             B
  Gtr III
                                                                      ~~~~~~~
                   |-----3-----|
   E     +E   e E  q      q    q        E  E     +e   E  E      +E   +Q
|-19b21-(19)-19---19pb21-19---19pb21-|-19-19b21-(19)-19-19b21==(19)-(19)r\--|
|------------------------------------|--------------------------------------|
|------------------------------------|--------------------------------------|
|------------------------------------|--------------------------------------|
|------------------------------------|--------------------------------------|
|------------------------------------|--------------------------------------|
|
| Gtr I
|  E      E   Q    Q        Q           Q         E   E +Q            Q
|------------------------------------|--------------------------------------|
|---------4--------5-----------------|--2-------------4-(4)-----------------|
|---------4--------4-----------------|--2-------------4-(4)-----------------|
|---------4--------6-----------------|--2-------------4-(4)-----------------|
|---------2--------4-----------------|--0-------------2-(2)-----------------|
|------------------------------------|--------------------------------------|


      B   E/C#                     A         B
 ~~~~~                                            ~~~~~
   Q    E E  E  E E  S  S    E      +E   +E   E  +Q    E E
|-------------------------|-16b17==(16)r(16)---------------|
|-------------------17-17-|------------------19-(19)\----9-|
|-------------------------|--------------------------------|
|-------------------------|--------------------------------|
|-[2]---------------------|--------------------------------|
|-------4-2p=0--0---------|--------------------------------|
|
|  E  E E E +Q    Q          E       E    E   E  +Q    Q
|-------------------------|--------------------------------|
|-----4---5-(5)-----------|----------2----2---4--(4)-------|
|-----4---4-(4)-----------|----------2----2---4--(4)-------|
|-----4---6-(6)-----------|----------2----2---4--(4)-------|
|-----2---4-(4)-----------|----------0----0---2--(2)-------|
|-------------------------|--------------------------------|


      B        E/C#          A       B
   |----3----|   |---3---|
   q     q   q   q   q   q    e  e E S  S  Q.    a E
|-[9]----------------------|-12-11---9---------------|
|-------12---9-[12]-12---9-|-----------12------------|
|--------------------------|--------------11S====4p0-|
|--------------------------|-------------------------|
|--------------------------|-------------------------|
|--------------------------|-------------------------|
|
|  E  E    Q     Q     Q      Q    E E    +Q   Q
|--------------------------|-------------------------|
|-----4----------5---------|--2------4----(4)--------|
|-----4----------4---------|--2------4----(4)--------|
|-----4----------6---------|--2------4----(4)--------|
|-----2----------4---------|--0------2----(2)--------|
|--------------------------|-------------------------|


         B         E/C#             A      B
                                                       ~~~
                                             |--3---|
  E a    +Q    +E  E Q.       Q        +E   +S   S  S  Q.    E
|--------------------------|------------------------------------|
|--------------------------|-21b24====(21)r(21)p19-21-21\----0--|
|--------------------------|------------------------------------|
|--------------------------|------------------------------------|
|---6b7==(6)r==(6)p4-------|------------------------------------|
|--------------------0-----|------------------------------------|
|
| E       E  Q     Q    Q     E     E   E    E        +Q   Q
|--------------------------|------------------------------------|
|---------4--------5-------|--------2---2----4--------(4)-------|
|---------4--------4-------|--------2---2----4--------(4)-------|
|---------4--------6-------|--------2---2----4--------(4)-------|
|---------2--------4-------|--------0---0----2--------(2)-------|
|--------------------------|------------------------------------|


      B         E/C#            A         B
                    ~                          ~~~~
   E.   S  E. S +E  Q   E   a a  E.  S  E  E  +Q.    E
|-11----9-----9-(9)-------|------9---9-12-11-(11)------|
|---------12--------9---9-|---x----------------------9-|
|-------------------------|-x--------------------------|
|-------------------------|----------------------------|
|-------------------------|----------------------------|
|-------------------------|----------------------------|
|
|  E  E    Q     Q    Q          Q      E  E  +Q   Q
|-------------------------|----------------------------|
|-----4----------5--------|------2---------4--(4)------|
|-----4----------4--------|------2---------4--(4)------|
|-----4----------6--------|------2---------4--(4)------|
|-----2----------4--------|------0---------2--(2)------|
|-------------------------|----------------------------|
|
| Gtr IV
|  W                             E.  S  E  E  +Q.    E
|-------------------------|------------16-14-(14)------|
|-------------------------|-----17--17-----------------|
|-------------------------|----------------------------|
|-------------------------|----------------------------|
|-------------------------|----------------------------|
|-------------------------|----------------------------|


        B         E/C#            A       B
                                                ~~~
                   |---3---|
  a  E.   S  E. S +Q  q    q    E E  E     +E   Q.    a E
|-9s11----9-----9-(9)--------|-----------------------------|
|-----------12--------9------|-----------------------------|
|-------------------------12-|-11-9-11b13-(11)-11-----4p0--|
|----------------------------|-----------------------------|
|----------------------------|-----------------------------|
|----------------------------|-----------------------------|
|
|    E  E    Q     Q    Q       E E  E      E  +Q   Q
|----------------------------|-----------------------------|
|-------4----------5---------|----2--2------4--(4)---------|
|-------4----------4---------|----2--2------4--(4)---------|
|-------4----------6---------|----2--2------4--(4)---------|
|-------2----------4---------|----0--0------2--(2)---------|
|----------------------------|-----------------------------|
|
|    W                          W
|----------------------------|-----------------------------|
|----------------------------|-----------------------------|
|----------------------------|-----------------------------|
|----------------------------|-----------------------------|
|----------------------------|-----------------------------|
|----------------------------|-----------------------------|


        B             E/C#                   A              B
   S  S S S  S S  S S  S  S S  S  S S  S S    S S  S S  S S  S  S  S  S S S Q
|---------9--------------------------------|------------------------------------|
|-------9---12p9----9----------------------|------------------------------------|
|-11h12----------12---12p11-9----11p9----9-|------------------------------------|
|-----------------------------11------11---|-11p9-11p9----9---------------------|
|------------------------------------------|-----------11---11-10--9--7---------|
|------------------------------------------|----------------------------9p7-9\--|
|
|  E    E    Q         Q          Q           Q         E    E    +Q        Q
|------------------------------------------|------------------------------------|
|-------4--------------5-------------------|--2--------------4----(4)-----------|
|-------4--------------4-------------------|--2--------------4----(4)-----------|
|-------4--------------6-------------------|--2--------------4----(4)-----------|
|-------2--------------4-------------------|--0--------------2----(2)-----------|
|------------------------------------------|------------------------------------|
|
|  W                                          W
|------------------------------------------|------------------------------------|
|------------------------------------------|------------------------------------|
|------------------------------------------|------------------------------------|
|------------------------------------------|------------------------------------|
|------------------------------------------|------------------------------------|
|------------------------------------------|------------------------------------|


    B       E/C#               A         B
      PM--|   PM--|
  |---3---| |--3--|
  Q   Q   Q Q Q   Q   E  a      +E   +E   E  +H
|-------------------|--------------------17-(17)b19=========||
|-------------------|---17b19==(17)r(17)--------------------||
|-6---------8-------|---------------------------------------||
|-----9---6---9---6-|---------------------------------------||
|-------------------|---------------------------------------||
|-------------------|---------------------------------------||
|
| E E   Q   Q   Q     E          E    E   E  +Q        Q
|-------------------|---------------------------------------||
|---4-------5-------|------------2----2---4--(4)------------||
|---4-------4-------|------------2----2---4--(4)------------||
|---4-------6-------|------------2----2---4--(4)------------||
|---2-------4-------|------------0----0---2--(2)------------||
|-------------------|---------------------------------------||
|
| W                   E  a      +E   +E   E  +Q        Q
|-------------------|---------------------------------------||
|-------------------|---12b14==(12)r(12)--9--(9)s=====19----||
|-------------------|---------------------------------------||
|-------------------|---------------------------------------||
|-------------------|---------------------------------------||
|-------------------|---------------------------------------||


 Out-Chorus
         E/B EsuE/BB    B         E/B
                          >
   +W                    +W
|-(17)----------------|-(17)r--------------|
|---------------------|--------------------|
|---------------------|--------------------|
|---------------------|--------------------|
|---------------------|--------------------|
|---------------------|--------------------|
|
|   PM-|   PM     PM|         PM
|   E  E E E  E E E E     E   E E E +H
|---------------------|--------------------|
|--------9---10-9-----|---7-----7-9-(9)----|
|--------9----9-9-----|---8-----8-9-(9)----|
|--------9----9-9-----|---9-----9-9-(9)----|
|---------------------|--------------------|
|---0--0---0------0-0-|-------0------------|
|
|                         >
|  +W                    +W
|---------------------|--------------------|
|-(19)----------------|-(19)---------------|
|---------------------|--------------------|
|---------------------|--------------------|
|---------------------|--------------------|
|---------------------|--------------------|


      E/B EsuE/BB                   B       E/B
  H        E  E       +E   +S   S    e  e E  E  +H
|------------14pb16==(14)r(14)p12-|-14-16---17-(17)b19=====|
|---------------------------------|------------------------|
|---------------------------------|------------------------|
|---------------------------------|------------------------|
|---------------------------------|------------------------|
|---------------------------------|------------------------|
|
| PM|   PM             PM-|             PM
| E E E E  E  E        E    E        E  E E  E  +H
|---------------------------------|------------------------|
|-----9---10--9-------------------|--7----7--9--(9)--------|
|-----9----9--9-------------------|--8----8--9--(9)--------|
|-----9----9--9-------------------|--9----9--9--(9)--------|
|---------------------------------|------------------------|
|-0-0---0--------------0----0-----|-----0------------------|
|
| W                                  W
|---------------------------------|------------------------|
|---------------------------------|------------------------|
|---------------------------------|------------------------|
|---------------------------------|------------------------|
|---------------------------------|------------------------|
|---------------------------------|------------------------|


         E/B EsuE/BB    B         E/B
                          >
   +W                    +W
|-(17)----------------|-(17)r--------------|
|---------------------|--------------------|
|---------------------|--------------------|
|---------------------|--------------------|
|---------------------|--------------------|
|---------------------|--------------------|
|
|   PM-|   PM     PM|         PM
|   E  E E E  E E E E     E   E E E +H
|---------------------|--------------------|
|--------9---10-9-----|---7-----7-9-(9)----|
|--------9----9-9-----|---8-----8-9-(9)----|
|--------9----9-9-----|---9-----9-9-(9)----|
|---------------------|--------------------|
|---0--0---0------0-0-|-------0------------|


      E/B EsuE/BB    B     E/B
  W                  H        E  E E  E
|------------------|----------------------|
|------------------|---------10p=9---[9]--|
|------------------|---------------9------|
|------------------|----------------------|
|------------------|----------------------|
|------------------|----------------------|
|
| PM|   PM     PM|     PM
| E E E E  E E E E   E E E E +H
|------------------|----------------------|
|-----9---10-9-----|-7---7-9-(9)----------|
|-----9----9-9-----|-8---8-9-(9)----------|
|-----9----9-9-----|-9---9-9-(9)----------|
|------------------|----------------------|
|-0-0---0------0-0-|---0------------------|


      E/B EsuE/BB    B        E/B
           ~~~~~~~~~~~~~~~~~~~~~~~~~~~~~
  E E Q    H          +W
|---------12-------|-(12)--------------|
|---9--------------|-------------------|
|-----9------------|-------------------|
|------------------|-------------------|
|------------------|-------------------|
|------------------|-------------------|
|
| PM|   PM     PM|        PM
| E E E E  E E E E     E  E E E +H
|------------------|-------------------|
|-----9---10-9-----|---7----7-9-(9)----|
|-----9----9-9-----|---8----8-9-(9)----|
|-----9----9-9-----|---9----9-9-(9)----|
|------------------|-------------------|
|-0-0---0------0-0-|------0------------|


         E/B EsuE/BB    B         E/B
 ~~~~~~
   +W                    +H..             E
|-(12)----------------|-(12)\----------------|
|---------------------|----------------------|
|---------------------|----------------------|
|---------------------|----------------------|
|---------------------|----------------------|
|---------------------|----------------------|
|
|   PM-|   PM     PM|         PM
|   E  E E E  E E E E     E   E E E +H
|---------------------|----------------------|
|--------9---10-9-----|---7-----7-9-(9)------|
|--------9----9-9-----|---8-----8-9-(9)------|
|--------9----9-9-----|---9-----9-9-(9)------|
|---------------------|----------------------|
|---0--0---0------0-0-|-------0--------------|


      E/B EsuE/BB    B     E/B            E/B Esus4/BE/B
  W                  W                H        E      +E  Q
|------------------|----------------|-------------------------|
|------------------|----------------|---------12pb14r(12)-----|
|------------------|----------------|-------------------------|
|------------------|----------------|-------------------------|
|------------------|----------------|-------------------------|
|------------------|----------------|-------------------------|
|
| PM|   PM     PM|     PM             PM|   PM            PM|
| E E E E  E E E E   E E E E +H       E E E E  E       E  E E
|------------------|----------------|-------------------------|
|-----9---10-9-----|-7---7-9-(9)----|-----9---10-------9------|
|-----9----9-9-----|-8---8-9-(9)----|-----9----9-------9------|
|-----9----9-9-----|-9---9-9-(9)----|-----9----9-------9------|
|------------------|----------------|-------------------------|
|-0-0---0------0-0-|---0------------|-0-0---0-------------0-0-|


  B               E/B
  E   E       +E   E    E   E   E    E
|--------------------------------------------|
|------------------------------[9]-[10]b12===|
|---[11]pb13r(11)-[9]-[11]-[9]---------------|
|--------------------------------------------|
|--------------------------------------------|
|--------------------------------------------|
|
|     PM
| E   E        E   E   +H
|--------------------------------------------|
|-7------------7---9---(9)-------------------|
|-8------------8---9---(9)-------------------|
|-9------------9---9---(9)-------------------|
|--------------------------------------------|
|-----0--------------------------------------|


           E/B EsuE/BB    B          E/B
     ~~~~~~
    +W                     +W
|-----------------------|---------------------|
|-([10])----------------|-(10)r\--------------|
|-----------------------|---------------------|
|-----------------------|---------------------|
|-----------------------|---------------------|
|-----------------------|---------------------|
|
|    PM--|   PM     PM|          PM
|    E   E E E  E E E E     E    E E E +H
|-----------------------|---------------------|
|----------9---10-9-----|---7------7-9-(9)----|
|----------9----9-9-----|---8------8-9-(9)----|
|----------9----9-9-----|---9------9-9-(9)----|
|-----------------------|---------------------|
|----0---0---0------0-0-|--------0------------|


      E/B EsuE/BB    B     E/B
  W                  W
|------------------|----------------|
|------------------|----------------|
|------------------|----------------|
|------------------|----------------|
|------------------|----------------|
|------------------|----------------|
|
| PM|   PM     PM|     PM
| E E E E  E E E E   E E E E +H
|------------------|----------------|
|-----9---10-9-----|-7---7-9-(9)----|
|-----9----9-9-----|-8---8-9-(9)----|
|-----9----9-9-----|-9---9-9-(9)----|
|------------------|----------------|
|-0-0---0------0-0-|---0------------|


      E/B EsuE/BB    B     E/B
                           PM----|   ~~~
  W                  E E E E  E  E E E
|------------------|-------------------|
|------------------|-------------------|
|------------------|---6p4---------6p4-|
|------------------|-------6--4h=6-----|
|------------------|-------------------|
|------------------|-------------------|
|
| PM|   PM     PM|     PM
| E E E E  E E E E   E E E E +H
|------------------|-------------------|
|-----9---10-9-----|-7---7-9-(9)-------|
|-----9----9-9-----|-8---8-9-(9)-------|
|-----9----9-9-----|-9---9-9-(9)-------|
|------------------|-------------------|
|-0-0---0------0-0-|---0---------------|


        E/B EsuE/BB    B       E/B
 ~~~~~~~~~~~~~~~~~~~~~~~~~~
  +W                   +H.            +Q
|--------------------|-----------------------|
|--------------------|-----------------------|
|-(4)----------------|-(4)------------(4)\---|
|--------------------|-----------------------|
|--------------------|-----------------------|
|--------------------|-----------------------|
|
|  PM-|   PM     PM|       PM
|  E  E E E  E E E E    E  E E E +H
|--------------------|-----------------------|
|-------9---10-9-----|--7----7-9-(9)---------|
|-------9----9-9-----|--8----8-9-(9)---------|
|-------9----9-9-----|--9----9-9-(9)---------|
|--------------------|-----------------------|
|--0--0---0------0-0-|-----0-----------------|


      E/B EsuE/BB                   B            E/B
                                                        ~~~~~~~~~
                                     |----3----|
  H        E  E       +E   +S   S    q    q    q    E   Q.
|------------14pb16==(14)r(14)p12-|-14---16---17-------17b19====|
|---------------------------------|-----------------------------|
|---------------------------------|-----------------------------|
|---------------------------------|-----------------------------|
|---------------------------------|-----------------------------|
|---------------------------------|-----------------------------|
|
| PM|   PM             PM-|            PM
| E E E E  E  E        E    E        E E    E    E +H
|---------------------------------|-----------------------------|
|-----9---10--9-------------------|--7------7----9-(9)----------|
|-----9----9--9-------------------|--8------8----9-(9)----------|
|-----9----9--9-------------------|--9------9----9-(9)----------|
|---------------------------------|-----------------------------|
|-0-0---0--------------0----0-----|----0------------------------|


         E/B EsuE/BB    B         E/B
 ~~~~~~
   +W                    +Q     E  E      +Q    +E   E
|-(17)----------------|-(17)r-----19b21==(19)r=(19)p16-|
|---------------------|--------------------------------|
|---------------------|--------------------------------|
|---------------------|--------------------------------|
|---------------------|--------------------------------|
|---------------------|--------------------------------|
|
|   PM-|   PM     PM|         PM
|   E  E E E  E E E E     E   E E  E      +H
|---------------------|--------------------------------|
|--------9---10-9-----|---7-----7--9------(9)----------|
|--------9----9-9-----|---8-----8--9------(9)----------|
|--------9----9-9-----|---9-----9--9------(9)----------|
|---------------------|--------------------------------|
|---0--0---0------0-0-|-------0------------------------|


           E/B EsuE/BB    B         E/B
   ~~~~~~~~~~~~~~~~~~~~~~~~~~~~~
   W                       +W
|-17b19=================|=(17)r--------------|
|-----------------------|--------------------|
|-----------------------|--------------------|
|-----------------------|--------------------|
|-----------------------|--------------------|
|-----------------------|--------------------|
|
|  PM----|   PM     PM|         PM
|  E     E E E  E E E E     E   E E E +H
|-----------------------|--------------------|
|----------9---10-9-----|---7-----7-9-(9)----|
|----------9----9-9-----|---8-----8-9-(9)----|
|----------9----9-9-----|---9-----9-9-(9)----|
|-----------------------|--------------------|
|--0-----0---0------0-0-|-------0------------|


      E/B EsuE/BB    B     E/B
  W                  W
|------------------|----------------*|
|------------------|----------------*|
|------------------|----------------*|
|------------------|----------------*|
|------------------|----------------*|
|------------------|----------------*|
|
| PM|   PM     PM|     PM
| E E E E  E E E E   E E E E +H
|------------------|----------------*|
|-----9---10-9-----|-7---7-9-(9)----*|
|-----9----9-9-----|-8---8-9-(9)----*|
|-----9----9-9-----|-9---9-9-(9)----*|
|------------------|----------------*|
|-0-0---0------0-0-|---0------------*|



Duration Legend
---------------
W - whole; H - half; Q - quarter; E - 8th; S - 16th; T - 32nd; X - 64th; a - acciaccatura
+ - note tied to previous; . - note dotted; .. - note double dotted
Uncapitalized letters represent notes that are staccato (1/2 duration)
Irregular groupings are notated above the duration line
Duration letters will always appear directly above the note/fret number it represents the
duration for.  Duration letters with no fret number below them represent rests.  Multi-
bar rests are notated in the form Wxn, where n is the number of bars to rest for.  Low
melody durations appear below the staff

Tablature Legend
----------------
 h   - hammer-on
 p   - pull-off
 b   - bend
 pb  - pre-bend
 r   - bend release (if no number after the r, then release immediately)
 /\  - slide into or out of (from/to "nowhere")
 s   - legato slide
 S   - shift slide
 - natural harmonic
[n]  - artificial harmonic
n(n) - tapped harmonic
 ~   - vibrato
 tr  - trill
 T   - tap
 TP  - trem. picking
 PM  - palm muting
\n/  - tremolo bar dip; n = amount to dip
 \n  - tremolo bar down
 n/  - tremolo bar up
/n\  - tremolo bar inverted dip
 =   - hold bend; also acts as connecting device for hammers/pulls
 <> - volume swell (louder/softer)
 x   - on rhythm slash represents muted slash
 o   - on rhythm slash represents single note slash

Misc Legend
-----------
 |  - bar
||  - double bar
||o - repeat start
o|| - repeat end
*|  - double bar (ending)
 :  - bar (freetime)
 $  - Segno
 &  - Coda
Tempo markers -  = BPM(8/16=s8/s16), where s8 = swing 8ths, s16 = swing 16ths





Comments


Popular Accept tabs & chords
Burning Bass Tabs
Donation Bass Tabs
Losers And Winners Bass Tabs
Pomp And Circumstance Bass Tabs
Save Us Bass Tabs
Balls To The Wall Tabs
Balls To The Wall 1 Tabs
Fast As A Shark 3 Tabs
Heaven Is Hell Tabs
Princess Of The Dawn 1 Tabs


Song lyrics



↑ Back to top | Tablatures and chords are parodies/interpretations of the original songs. You may use it for private study, scholarship, research or language learning purposes only
© 2014 AZChords.com Contact us | Privacy policy | DMCA | Add/correct tabs | Request tabs | Top 50 tabs