» » »

Screaming For A Love Bite Tabs (ver.1)

Artists:  A B C D E F G H I J K L M N O P Q R S T U V W X Y Z # 

Screaming For A Love Bite Tabs (ver.1)

Accept
Rating:
0/5 (0 votes)

Hard to play? Try these video lessons and learn fast.
                Accept - Screaming For A Love-Bite



 
e|-------------------------------------|
B|-------9--10-9-----7---7-9-----------|
G|*------9---9-9-----9---9-9----------*|
D|*-----------------------------------*|
A|---7-7---7-----7-7---7-------7-7-7---|
E|-------------------------------------|

e|-----------------------------------|---------------------------|
B|------9--10-9------------9---------|------9--10-9-----7---7----|
G|------9---9-9----11---11-9---------|------9---9-9-----8---8-9--|
D|-----------------13---13-----------|------------------9---9-9--|
A|-----------------------------------|--7-7---7-----7-7---7---7--|
E|--9-9---9-----9-9---9-------9-9-9--|---------------------------|
            
Hard to play? Try these video lessons and learn fast. | Correct




comments powered by Disqus
↑ Back to top | Tablatures and chords are parodies/interpretations of the original songs. You may use it for private study, scholarship, research or language learning purposes only