» » »

Accept, Stalingrad Tabs (ver.1)

Artists:  A B C D E F G H I J K L M N O P Q R S T U V W X Y Z # 

Stalingrad Tabs (ver.1)

Accept Tabs
Rating:
0/5 (0 votes)
Stalingrad lessons Tabs too difficult? Try these video lessons and learn fast
                There can be some mistakes, but I´m pretty sure that this is correct. Remember, I´m only 
13 years old, and played guitar 5 years.
Hope this was helpful :)

               intro
e-------------------------------------------------------------|
h-------------------------------------------------------------|
g-------6--------9--8---6-------------------------------------|      x2
d--------------------------6-------4------7---9---6-----------|
a-------------------------------------------------------------|
e-------------------------------------------------------------|


e------------------------------------------------------------------|
h------------------------------------------------------------------|
g------------------------------------------------------------------|
d------------------------------------------------------------------|
a----------------------------5---5---------------------------------|
e-0-0--0-0-0-0-0-0-0-0-0-0-0-3---5---------------------------------|

(end of the chorus:)

e--------------------------------------------------------------|
h--------------------------------------------------------------|
g--------------------------------------------------------------|
d--------------------------------------------------------------|
a-------5-------7-------5-----8--7-----------------------------|
e-0-0-0-3-0-0-0-5-0-0-0-3--0--6--5-----------------------------|

I haven´t figured out whole song, but it´s pretty easy to find out. Just listen the song 
few times and you will get it right.
            

comments powered by Disqus
↑ Back to top | Accept Tabs for Stalingrad. Lyrics for acoustic guitar and electric guitar. Tablatures and chords are parodies/interpretations of the original songs. You may use it for private study, scholarship, research or language learning purposes only