>
 >
Metal Heart

Metal Heart Guitar Tabs

Accept - Metal Heart chords, tabs, tablatures, lyrics

Guitar lessons | Add/correct | Request | Top 50 tabs Artists:  A B C D E F G H I J K L M N O P Q R S T U V W X Y Z 0-9

Metal Heart Guitar Tabs – Accept

CD, Sheet music, Poster

Do you like Metal Heart? Share with your friends now
Bass TabsTabsTabs v2
Accept - Metal heart
--------------------
tapped by : Kevin Imbrechts (kef01)

intro
 
||-----------|---------|-----------|------| 
||*----------|---------|-----------|------| 
||--4--3-----|---------|-4-4-3-----|------| 
||-------5-4-|-2---4-5-|-------5-4-|-2----| 
||*----------|---------|-----------|------| 
||-----------|---------|-----------|------| 
 
|----------|-------------|--------------|-------|| 
|----------|-------------|--------------|------*|| 
|----------|-------------|-4-4-4-3------|-------|| 
|-4--5-4-2-|-------2-4---|----------5-4-|-2-----|| 
|-5--------|-5-4-5-----5-|--------------|------*|| 
|----------|-------------|--------------|-------|| 
   

||------------------------------|-------------------------| 
||*-----------------------------|-------------------------| 
||------------------------------|-------------------------| 
||------5-----5-----5-----5-----|-6-----6-----6-----6-----| 
||*-----3-3-3-3-3-3-3-3-3-3-3-3-|-3-3-3-3-3-3-3-3-3-3-3-3-| 
||------------------------------|-------------------------| 

  
  
|--------------------------|---------------------|| 
|--------------------------|--------------------*|| 
|--------------------------|---------------------|| 
|-5------5-----5-----5-----|-6-------------------|| 
|-3-3--3-3-3-3-3-3-3-3-3-3-|-6------------------*|| 
|--------------------------|-4-------------------|| 

||------------------------------|-------------------------| 
||*-----------------------------|-------------------------| 
||------------------------------|-------------------------| 
||------5-----5-----5-----5-----|-6-----6-----6-----6-----| 
||*-----3-3-3-3-3-3-3-3-3-3-3-3-|-3-3-3-3-3-3-3-3-3-3-3-3-| 
||------------------------------|-------------------------| 
       
|--------------------------|----------------------| 
|--------------------------|----------------------| 
|--------------------------|----------------------| 
|-5------5-----5-----5-----|-6--------------------| 
|-3-3--3-3-3-3-3-3-3-3-3-3-|-6--------------------| 
|--------------------------|-4--------------------| 
    The human race has to    face it. 
    The human race is        dying   

|----------------------------|--------------------------| 
|----------------------------|--------------------------| 
|----------------------------|--------------------------| 
|-5------5------5------5-----|-6-----6-----6------6-----| 
|-3-3-3--3-3-3--3-3-3--3-3-3-|-3-3-3-3-3-3-3-3--3-3-3-3-| 
|----------------------------|--------------------------| 
  They are confronted with the truth                it's 
 But the result is no   di-    sease 
  
|-----------|-------------|| 
|-----------|------------*|| 
|-5---5-----|-8---8-------|| 
|-5---5-----|-8---8-------|| 
|-3---3-----|-6---6------*|| 
|-----------|-------------|| 
  secret my- sterious 
  Searching  for you  
   
||--------------------|-------------------|----------------| 
||*-------------------|-------------------|----------------| 
||--7--5--7---------7-|-7--5--7---------7-|-7--5---7--5----| 
||--7--5--7---------7-|-7--5--7---------7-|-7--5---5--3--5-| 
||*-5--3--5----5----5-|-5--3--5----5----5-|-5--3---------3-| 
||--------------------|-------------------|----------------| 
            Metal heart         metal heart 
            Metal heart         metal heart  

|-------------------------------|| 
|------------------------------*|| 
|-------------------------------|| 
|-------------------------------|| 
|-6----------------------------*|| 
|-4-----------------------------|| 
    Unplugged they're dying 
    Lifeless peace of   

||------------------------------|-------------------------| 
||*-----------------------------|-------------------------| 
||------------------------------|-------------------------| 
||------5-----5-----5-----5-----|-6-----6-----6-----6-----| 
||*-----3-3-3-3-3-3-3-3-3-3-3-3-|-3-3-3-3-3-3-3-3-3-3-3-3-| 
||------------------------------|-------------------------| 
     Steel 
   

  
|--------------------------|---------------------|| 
|--------------------------|--------------------*|| 
|--------------------------|---------------------|| 
|-5------5-----5-----5-----|-6-------------------|| 
|-3-3--3-3-3-3-3-3-3-3-3-3-|-6------------------*|| 
|--------------------------|-4-------------------|| 
  
Rh.Fig.2 twice (2nd Verse) 
Chorus (Chorus) 
Solo 
Chorus (Chorus) 

Solo:

|-------------------------------------------------------------------|
|-------------------------------------------------------------------|
|-------------------------------------------------------------------|
|------------------7---9--10----------------------------------------|
|-7-7-----7-9-10----------------------------------------------------|
|-------------------------------------------------------------------|

|-------------------------------------------------------------------|
|-------------------------------------------------------------------|
|-8-9-11-11-9-8-9-9-9-9-9-9-9-9-9-9-9-9-9-9-9-9-9-9-9-9-------------|
|-------------------------------------------------------------------|
|-------------------------------------------------------------------|
|-------------------------------------------------------------------|

|-------------------------------------------------------------------|
|-----------------------------------8-10-10b--10-8-7-8--------------|
|-8h9------8h9-----8h9-----8-9--------------------------------------|
|------10------10------10-------------------------------------------|
|-------------------------------------------------------------------|
|-------------------------------------------------------------------|


|----7h8----7h8-----7h8------7-8-10--8-7-8-7---------7--------------|
|--------10-----10-------10-----------------------10---10-8-10-7-8-7|
|-9-----------------------------------------------------------------|
|-------------------------------------------------------------------|
|-------------------------------------------------------------------|
|-------------------------------------------------------------------|

|-------------------------------------------------------------------|
|--------------15br~~~----------------------------------------------|
|-9----12br-------------12-12-10-12----10---------------------------|
|-----------------------------------12-----13---10~--------10-------|
|----------------------------------------------------10-------------|
|-------------------------------------------------------------------|

|-------------------------------------------------------------------|
|-------------------------------------------------------------------|
|----------------------------------------12-10-12-----10------------|
|-12--12br--10------------------------------------12-----13-10~-----|
|---------------------------------10/----------------------------10-|
|-------------------------------------------------------------------|

|-------------------------------------------------------------------|
|-------------------------------------------------------------------|
|---------------------------------------10b--10b--12b---10---10br---|
|-------12br~-----------------10-12-13------------------------------|
|-------------------------------------------------------------------|
|-------------------------------------------------------------------|

|-------------------------------------------------------------------|
|-------------------------------------------------------------------|
|-8h10p8h10p8h10p8h10p8h10p8h10p8h10p8h10-p-8/7h8p7/5h7p5/4h5p4-----|
|----------------------------------------------------------------7--|
|-------------------------------------------------------------------|
|-------------------------------------------------------------------|

|-----------------------------12----------------------12------------|
|--------------------------------13----------12-13-15----13---------|
|-4h5p4---5p4---4h5p4---------------14----14----------------14------|
|-------------7-------7-5~-------------14----------------------14---|
|-------------------------------------------------------------------|
|-------------------------------------------------------------------|


|-------------13----------------------13--------------------13------|
|----12-13-15----15----------------15----15---------------15--------|
|-14---------------16----16----16----------16----16----16-----------|
|---------------------15----15----------------15----15--------------|
|-------------------------------------------------------------------|
|-------------------------------------------------------------------|

|-12----------------------12---------------10-----------------------|
|----13----------12-13-15----13---------12----12----------10-12-13--|
|-------14----14----------------14---14----------12----12-----------|
|----------14---------------------14----------------12--------------|
|-------------------------------------------------------------------|
|-------------------------------------------------------------------|

|-10-13----------10-12----------10-13----------10-12----------------|
|--------10-12----------12-13-----------10-12----------10-13--------|
|-------------------------------------------------------------------|
|-------------------------------------------------------------------|
|-------------------------------------------------------------------|
|-------------------------------------------------------------------|

|-------------------------------------------------------------------|
|-13p12p10-13p12p10-13p12p10-13p12p10-15p13p12-15p13p12-17p15p13----|
|-------------------------------------------------------------------|
|-------------------------------------------------------------------|
|-------------------------------------------------------------------|
|-------------------------------------------------------------------|

|-------------------------------------------------------------------|
|-17p15p13-18p17p15-18p17-20-18-16----------------------------------|
|----------------------------------19-17-16-------------------------|
|-------------------------------------------18-17-15----------------|
|----------------------------------------------------18-17-15-14----|
|----------------------------------------------------------------17-|

|-------------------------------------------------------------------|
|-------------------------------------------------------------------|
|-------------------------------------------------------------------|
|---------------------------16-17-19-17-----------------------------|
|---------------14-15-17-18-----------------------------------------|
|-15-14---15-17-----------------------------------------------------|

|---------12-15-12---------------12-15-12---------------------------|
|------13---------13----------13----------13----------13------------|
|---12---------------12----12----------------12----12---------------|
|-14--------------------13----------------------14------------------|
|-------------------------------------------------------------------|
|-------------------------------------------------------------------|

|-12-15-12----------------12-15-12----------------------------------|
|----------13----------13----------13-------------------------------|
|-------------12----12----------------12----------------------------|
|----------------13-------------------------------------------------|
|-------------------------------------------------------------------|
|-------------------------------------------------------------------|

|-------------------------------------------------------------------|
|-------------------------------------------------------------------|
|-11-12-11-12-11-12-11-12-11-12-11-12-11-12-11-12-11-12-11-12-11-12-|
|-------------------------------------------------------------------|
|-------------------------------------------------------------------|
|-------------------------------------------------------------------|

|-------------------------------------------------------------------|
|-------------------------------------------------------------------|
|-11-12-11-12-11-12-11-12-11-12~--------10--------------------------|
|------------------------------------12----13--10~---10-------------|
|-------------------------------------------------10----------------|
|-------------------------------------------------------------------|
         
|-------------------------------------------------------------------|
|-------------------------------------------------------------------|
|-----------------------------------------10-10b-12b--10------------|
|---------12br--10---------12b-13-----------------------------------|
|-------------------------------------------------------------------|
|-------------------------------------------------------------------|

|-------------------------------------------------------------------|
|-------------------------------------------------------------------|
|-10b-10p8/7h8p7/5h7p5/4h5p4---4h-----------------------------------|
|----------------------------7---7-4h---4h5p4h5p4h5p4h5p4h5p4-------|
|-------------------------------------------------------------------|
|-------------------------------------------------------------------|

|-------------------------------------------------------------------|
|----------------------------------16p15p13h16p15p13h16p15p13h16p13-|
|-8p7h8p7h8p7h8p7h8p7h8p7h8p7h8p7-----------------------------------|
|-------------------------------------------------------------------|
|-------------------------------------------------------------------|
|-------------------------------------------------------------------|

|-----------------15---18--18bf-------------------------------------|
|-16p15p13---18-----------------------------------------------------|
|-------------------------------------------------------------------|
|-------------------------------------------------------------------|
|-------------------------------------------------------------------|
|-------------------------------------------------------------------|
  
|------------------------------------------------------------------|
|------------------------------------------------------------------|
|---12-11-12-11-12-11-12-11-12-11bfr-------------------------------|
|------------------------------------------------------------------|
|------------------------------------------------------------------|
|------------------------------------------------------------------|

Ending goes like this

|------------------------------------------------------------------|
|------------------------------------------------------------------|
|------------------------------------------------------------------|
|------------------------------------------------------------------|
|-------7--5--7\---------------------------------------------------|
|-------5--5--5\--------------------------------------------------





Comments


Popular Accept tabs & chords
It's Hard To Find A Way Bass Tabs
Living For Tonight 2 Bass Tabs
Neon Lights Bass Tabs
Helldriver Tabs
Losers And Winners Tabs
No Time To Loose Tabs
Shake Your Heads 1 Tabs
Stalingrad Tabs
Stalingrad 1 Tabs
Teutonic Terror 2 Tabs


Song lyrics



↑ Back to top | Tablatures and chords are parodies/interpretations of the original songs. You may use it for private study, scholarship, research or language learning purposes only
© 2014 AZChords.com Contact us | Privacy policy | DMCA | Add/correct tabs | Request tabs | Top 50 tabs