>
 >
My Heroics Part One 1

My Heroics Part One 1 Guitar Tabs

Absynthe Minded - My Heroics Part One 1 chords, tabs, tablatures, lyrics

Guitar lessons | Add/correct | Request | Top 50 tabs Artists:  A B C D E F G H I J K L M N O P Q R S T U V W X Y Z 0-9

My Heroics Part One 1 Guitar Tabs – Absynthe Minded

CD, Sheet music, Poster

Do you like My Heroics Part One 1? Share with your friends now
Bass TabsChordsChords v2TabsTabs v2Ukulele
-------------------------------------------------------------------------------
                     My Heroics, Part One - Absynthe Minded
-------------------------------------------------------------------------------



"My Heroics, Part One"
New Day (2005), Introducing (2008), Absynthe Minded (2009), Fill Me Up (2010)




RHYTHM GUITAR


Chords used :

    G#    E     F#    G#m

e|--4-----0-----2-----4--
B|--4-----0-----2-----4--
G|--5-----1-----3-----4--
D|--6-----2-----4-----6--
A|--6-----2-----4-----6--
E|--4-----0-----2-----4--





Intro :  G#   E (x8)



 G#              E
Enough said, the make-shift
      G#         E
Is a comfortable chair
    G#            E
Sit back and I'll tell you
      G#        E
We're living in fear
    G#      E
And I don't know
         G#     E
Why you talk so rough
  F#       E
Why should I be
 F#      E
Not sure of
     G#         E
Myself and my intentions
     G#          E
They are cristal clear
  G#           E
I wanna pay my duty
        G#    E
To your daddy dear
 G#     E        
Hold on to
      G#  E
Your decency
      F#      E
I'll make you whole
     F#      E
And we'll be free 


         G#m
Isn't it always so ?
          F#              E
The story is unfold, at least
          G#m
You got a different role
            F#               E
And now you gotta quit the scene 


   G#         E
I favour your flavour
       G#       E
I'm confronting you
    G#           E
You stroke a bad patch
          G#         E
With the man who has you
     G#  E
And baby won't
       G#    E
You consider me
      F#      E
I'll make you whole
     F#      E
And we'll be free
            G#     E
And we're driving alone
     G#       E
On a saturday night
      G#        E
We're feeling alright
       G#       E
Everything's in sight
     G#  E
And baby won't
       G#    E
You consider me
      F#      E
I'll make you whole
     F#      E
And we'll be free


         G#m
Isn't it always so ?
          F#              E
The story is unfold, at least
          G#m
You got a different role
            F#               E
And now you gotta quit the scene


During the solo, play the verse ("G#   E" x6 and "F#   E" x2) two times.

         G#m
Isn't it always so ?
          F#              E
The story is unfold, at least
          G#m
You got a different role
            F#               E
And now you gotta quit the scene


         G#m
Isn't it always so ?
          F#              E
The story is unfold, at least
          G#m
You got a different role
            F#               E
And now you gotta quit the scene









LEAD GUITAR


Intro :

e|--------------------------------------------------------------|
B|--------------------------------------------------------------|
G|-----------------------4---4~------4~-------------------------|
D|----6---6~-----------------------------------6---6~-----------|
A|--------------------------------------------------------------|
E|--------------------------------------------------------------|



Solo :

e|--------------------------------------------------------------|
B|--------------------------------------------------------------|
G|--------4---------------------4--6-6b8-(6)-4-----8-----4------|
D|--6-6-------6-4-6-6------6-6-----------------6-4---(6)---6-4--|
A|--------------------------------------------------------------|
E|--------------------------------------------------------------|

e|---------------------------------------------------------|
B|---------------------------------------------------------|
G|--8-----4---------8-9-8-6---4/3-1----4/6\4-------6-8--8--|
D|----(6)---(6)-(4)-----------------4----------------------|
A|---------------------------------------------------------|
E|---------------------------------------------------------|

e|--------------------------------------------------------------|
B|--------------------------------------------------------------|
G|--13--11----13--11----13-11----11h13--16~~~~~~--15-13--15-13--|
D|---------13--------13-------13--------------------------------|
A|--------------------------------------------------------------|
E|--------------------------------------------------------------|





Comments


Popular Absynthe Minded tabs & chords
Heaven Knows Chords
Heaven Knows 1 Chords
How Short A Time Chords
Moodswing Baby 1 Chords
New Day Chords
Envoi 2 Tabs
I Like You When Youre Sad Tabs
Ill Be Alright Tabs
I Like You When Youre Sad Ukulele
Walk With Me Ukulele


Song lyrics



↑ Back to top | Tablatures and chords are parodies/interpretations of the original songs. You may use it for private study, scholarship, research or language learning purposes only
© 2014 AZChords.com Contact us | Privacy policy | DMCA | Add/correct tabs | Request tabs | Top 50 tabs