» » »

Absynthe Minded, My Heroics Chords (ver.2)

Artists:  A B C D E F G H I J K L M N O P Q R S T U V W X Y Z # 

My Heroics Chords (ver.2)

Absynthe Minded Tabs
 Rating:
4.2/5 (5 votes)
My Heroics lessons Tabs too difficult? Try these video lessons and learn fast
                (PartOne)
[INTRO] Abm  E   (x4)
        B    Abm (x2)
        Abm  E   (x2)

Verse 1:

 Abm             E
Enough said, the make-shift 
     Abm         E
Is a comfortable chair 
     Abm          E
Sit back and I'll tell you 
     Abm         E
We're living in fear 
    B       Abm
And I don't know 
        B       Abm
Why you talk so rough 
Bb        Abm   
Why should I be 
Bb       Abm 
Not sure of 
  Abm          E  
Myself & my intentions 
     Abm         E
They are cristal clear 
     Abm        E
I wanna pay my duty 
        Abm   E
To your daddy dear 
B       Abm     B    Abm
Hold on to your decency 
     Bb       Abm
I'll make you whole 
    Bb       Abm
And we'll be free 

Chorus:
         Abm       (B)    Abm
Isn't it always so? 
          F#            E
The story is unfold, at least 
          Abm       (B)    Abm
You got a different role 
            F#             E
And now you gotta quit the scene 

  Abm          E 
I favour your flavour 
    Abm          E
I'm confronting you 
    Abm          E
You stroke a bad patch 
        Abm          E
With the man who has you 
    B    Abm
And baby won't you 
    B    Abm
Consider me 
     Bb       Abm
I'll make you whole 
    Bb       Abm
And we'll be free 
          Abm       E
And we're driving alone 
     Abm      E
On a Saturday night 
       Abm       E 
We're feeling alright, 
      Abm       E 
Everything's in sight 
    B    Abm  
And baby won't you 
    B    Abm
Consider me 
     Bb       Abm
I'll make you whole 
    Bb       Abm
And we'll be free 

[Solo]

[Chorus] x4

__________________________________________________________
==========================================================

Solo:
e------------------------------------------------------------|
B------------------------------------------------------------|
G------4-------------------4--6-4-6b(8)--4-----8---4-----8---|
D--6-6----6-4-6-6--2---6-6-----------------6-4---6---6-4-----|
A------------------------------------------------------------|
E------------------------------------------------------------|

e-----------------------------------------|
B-----------------------------------------|
G---4---8-9-8-6---4p3\1-1--4/6-4---6-8----|
D-6---------------------------------------|
A-----------------------------------------|
E-----------------------------------------|

e------------------------------------------------------------|
B------------------------------------------------------------|
G--13~-11----13~-11----13-11--11h13----16~~-15-13--15-13-----|
D--------13--------13-------13-------------------------------|
A------------------------------------------------------------|
E------------------------------------------------------------|
            
Submit corrections

comments powered by Disqus
↑ Back to top | Absynthe Minded Chords for My Heroics. Lyrics for acoustic guitar and electric guitar. Tablatures and chords are parodies/interpretations of the original songs. You may use it for private study, scholarship, research or language learning purposes only