» » »

My Heroics Chords (ver.1)

Artists:  A B C D E F G H I J K L M N O P Q R S T U V W X Y Z # 

My Heroics Chords (ver.1)

Absynthe Minded
Rating:
3/5 (3 votes)

Hard to play? Try these video lessons and learn fast.
                (PartOne)
Absynthe Minded
"My Heroics, Part One"
New Day (2005), Introducing (2008), Absynthe Minded (2010)




RHYTHM GUITAR


Chords used :

    Ab    E     F#    Abm

e|--4-----0-----2-----4--|
B|--4-----0-----2-----4--|
G|--5-----1-----3-----4--|
D|--6-----2-----4-----6--|
A|--6-----2-----4-----6--|
E|--4-----0-----2-----4--|





Intro :  Ab   E (x8)



 Ab              E
Enough said, the make-shift
      Ab         E
Is a comfortable chair
    Ab            E
Sit back and I'll tell you
      Ab        E
We're living in fear
    Ab      E
And I don't know
         Ab     E
Why you talk so rough
  F#       E
Why should I be
 F#      E
Not sure of
     Ab         E
Myself and my intentions
     Ab          E
They are cristal clear
  Ab           E
I wanna pay my duty
        Ab    E
To your daddy dear
 Ab     E
Hold on to
      Ab  E
Your decency
      F#      E
I'll make you whole
     F#      E
And we'll be free


         Abm
Isn't it always so ?
          F#              E
The story is unfold, at least
          Abm
You got a different role
            F#               E
And now you gotta quit the scene


   Ab         E
I favour your flavour
       Ab       E
I'm confronting you
    Ab           E
You stroke a bad patch
          Ab         E
With the man who has you
     Ab  E
And baby won't
       Ab    E
You consider me
      F#      E
I'll make you whole
     F#      E
And we'll be free
            Ab     E
And we're driving alone
     Ab       E
On a saturday night
      Ab        E
We're feeling alright
       Ab       E
Everything's in sight
     Ab  E
And baby won't
       Ab    E
You consider me
      F#      E
I'll make you whole
     F#      E
And we'll be free


         Abm
Isn't it always so ?
          F#              E
The story is unfold, at least
          Abm
You got a different role
            F#               E
And now you gotta quit the scene


During the solo, play the verse ("G#   E" x6 and "F#   E" x2) two times.

         Abm
Isn't it always so ?
          F#              E
The story is unfold, at least
          Abm
You got a different role
            F#               E
And now you gotta quit the scene


         Abm
Isn't it always so ?
          F#              E
The story is unfold, at least
          Abm
You got a different role
            F#               E
And now you gotta quit the scene









LEAD GUITAR


Intro :

e|--------------------------------------------------------------|
B|--------------------------------------------------------------|
G|--------4---------------------4--6-6b8-(6)-4-----8-----4------|
D|--6-6-------6-4-6-6------6-6-----------------6-4---(6)---6-4--|
A|--------------------------------------------------------------|
E|--------------------------------------------------------------|



Solo :

e|--------------------------------------------------------------|
B|--------------------------------------------------------------|
G|--------4---------------------4--6-6b8-(6)-4-----8-----4------|
D|--6-6-------6-4-6-6------6-6-----------------6-4---(6)---6-4--|
A|--------------------------------------------------------------|
E|--------------------------------------------------------------|

e|---------------------------------------------------------|
B|---------------------------------------------------------|
G|--8-----4---------8-9-8-6---4/3-1----4/6\4-------6-8--8--|
D|----(6)---(6)-(4)-----------------4----------------------|
A|---------------------------------------------------------|
E|---------------------------------------------------------|

e|--------------------------------------------------------------|
B|--------------------------------------------------------------|
G|--13--11----13--11----13-11----11h13--16~~~~~~--15-13--15-13--|
D|---------13--------13-------13--------------------------------|
A|--------------------------------------------------------------|
E|--------------------------------------------------------------|



AF
            
Hard to play? Try these video lessons and learn fast. | Correct




comments powered by Disqus
↑ Back to top | Tablatures and chords are parodies/interpretations of the original songs. You may use it for private study, scholarship, research or language learning purposes only