» » »

My Heroics Tabs (ver.1)

Artists:  A B C D E F G H I J K L M N O P Q R S T U V W X Y Z # 

My Heroics Tabs (ver.1)

Absynthe Minded
Rating:
5/5 (10 votes)

Hard to play? Try these video lessons and learn fast.
                (PartOne)
                            My Heroics, Part One


Intro (0:00)
--------------

-Piano intro: (Left hand low notes; Right hand normal notes)
   G# E   (4x)
   B  G#  (2x)
   A# G#  (2x)

-Guitar Intro: (first note at 0:03)
e----------------------------------------------------------|
B----------------------------------------------------------|
G---1-1-1-----4-4-4----(4)----1-1-1------------------------|
D----------------------------------------------------------|
A----------------------------------------------------------|
E----------------------------------------------------------|


Chorus (1:01)
--------------

     E ---(4)-------------|
     B ---(4)-------------|
Gm#  G ----5--------------|
     D ----6--------------|
     A ----6--------------|
     E ----4--------------|

     E ---(2)-------------|
     B ---(2)-------------|
F#   G ----3--------------|
     D ----4--------------|
     A ----4--------------|
     E ----2--------------|

     E ---(0)-----------|
     B ---(0)-----------|
E    G ----1------------|
     D ----2------------|
     A ----2------------|
     E ----0------------|


Solo (2:23)
--------------

e------------------------------------------------------------|
B------------------------------------------------------------|
G------4-------------------4--6-4-6b(8)--4-----8---4-----8---|
D--6-6----6-4-6-6--2---6-6-----------------6-4---6---6-4-----|
A------------------------------------------------------------|
E------------------------------------------------------------|

e-----------------------------------------|
B-----------------------------------------|
G---4---8-9-8-6---4p3\1-1--4/6-4---6-8----|
D-6---------------------------------------|
A-----------------------------------------|
E-----------------------------------------|

e------------------------------------------------------------|
B------------------------------------------------------------|
G--13~-11----13~-11----13-11--11h13----16~~-15-13--15-13-----|
D--------13--------13-------13-------------------------------|
A------------------------------------------------------------|
E------------------------------------------------------------|
            
Hard to play? Try these video lessons and learn fast. | Correct




comments powered by Disqus
↑ Back to top | Tablatures and chords are parodies/interpretations of the original songs. You may use it for private study, scholarship, research or language learning purposes only