» » »

Generacion Perdida Tabs (ver.2)

Artists:  A B C D E F G H I J K L M N O P Q R S T U V W X Y Z # 

Generacion Perdida Tabs (ver.2)

6 Voltios
Rating:
0/5 (0 votes)

Hard to play? Try these video lessons and learn fast.
                Generación-Perdida

INTRO:

E----------------------------------------------
B----4---5---4---7-5-4--------4---5---4---5-4-2
G--4---4---4---4------------4---4---4---4------
D----------------------------------------------
A----------------------------------------------
E----------------------------------------------


E----------------------------------------------
B---1---2---1---4-2-1---------1---2---1---2-3-5
G-1---1---1---1-------------1---1---1---1------
D----------------------------------------------
A----------------------------------------------
E----------------------------------------------


E----------------------------------------------
B----------------------------------------------
G----4---5---7-----------2---3---5-------------
D--5---5---5-----------3---3---3---------------
A----------------------------------------------
E---------------------------------------------- 2x


VERSO 1


.=RASGUEO MAS RAPIDO

E-----------------------------------------------------------------
B-----------------------------------------------------------------
G-5-5-5---5-5-5---12-12-12---12-12-12-----------------------------
D-5-5-5---5-5-5---12-12-12---12-12-12---7-7-7---7-7-7---10...12...
A-3-3-3---3-3-3---10-10-10---10-10-10---7-7-7---7-7-7---10...12...
E---------------------------------------5-5-5---5-5-5----8...10...


E-----------------------------------------------------------------
B-----------------------------------------------------------------
G-5-5-5...5-5-5...12-12-12...12-12-12-----------------------------
D-5-5-5...5-5-5...12-12-12...12-12-12...7-7-7...7-7-7...10...12...
A-3-3-3...3-3-3...10-10-10...10-10-10...7-7-7...7-7-7...10...12...
E------------------------------------...5-5-5...5-5-5....8...10...




E----------------------------------------------
B----4---5---4---7-5-4--------4---5---4---5-4-2
G--4---4---4---4------------4---4---4---4------
D----------------------------------------------
A----------------------------------------------
E----------------------------------------------


E----------------------------------------------
B---1---2---1---4-2-1---------1---2---1---2-3-5
G-1---1---1---1-------------1---1---1---1------
D----------------------------------------------
A----------------------------------------------
E----------------------------------------------


E----------------------------------------------
B----------------------------------------------
G----4---5---7-----------2---3---5-------------
D--5---5---5-----------3---3---3---------------
A----------------------------------------------
E----------------------------------------------


VERSO 2


E-----------------------------------------------------------------
B-----------------------------------------------------------------
G-5-5-5---5-5-5---12-12-12---12-12-12-----------------------------
D-5-5-5---5-5-5---12-12-12---12-12-12---7-7-7---7-7-7---10...12...
A-3-3-3---3-3-3---10-10-10---10-10-10---7-7-7---7-7-7---10...12...
E---------------------------------------5-5-5---5-5-5----8...10...


E-----------------------------------------------------------------
B-----------------------------------------------------------------
G-5-5-5...5-5-5...12-12-12...12-12-12-----------------------------
D-5-5-5...5-5-5...12-12-12...12-12-12...7-7-7...7-7-7...10...12...
A-3-3-3...3-3-3...10-10-10...10-10-10...7-7-7...7-7-7...10...12...
E------------------------------------...5-5-5...5-5-5....8...10...


CORO:


E------------------------------------------------------------------
B------------------------------------------------------------------
G-5...12...--------10---------10-----5...12...--------10---------12
D-5...12...--------10---------10-----5...12...--------10---------12
A-3...10...8-8-8-8-8--8-8-8-8--8-----3...10...8-8-8-8-8--8-8-8-8--8
E------------------------------------------------------------------


E------------------------------------------
B------------------------------------------
G-5...12...10.......----5...12...10...12...
D-5...12...10.......----5...12...10...12...
A-3...10....8.......----3...10....8...10...
E------------------------------------------



Solo


E------------------------------------------------------------------
B------------------------------------------------------------------
G------------------------------------------------------------------
D-2-2--2-2----2-2--2-2----0-0--0-0-----3-2-0-----------------------
A---------3------------3-----------3---------3---------------------
E------------------------------------------------------------------





E------------------------------------------------------------------
B------------------------------------------------------------------
G------------------------------------------------------------------
D-------0---------0-------3-3----3-3-3----3---5-3-2-0--------------
A-0-3-0---3-0-3-0---0----------------------------------------------
E------------------------------------------------------------------


E------------------------------------------------------------------
B------------------------------------------------------------------
G------------------------------------------------------------------
D-2-2--2-2----2-2--2-2----0-0--0-0-----3-2-0-----------------------
A---------3------------3-----------3---------3---------------------
E------------------------------------------------------------------




E------------------------------------------------------------------
B------------------------------------------------------------------
G------------------------------------------------------------------
D-------0----2--0---------3-3----3-3-3----3---5-3-2-0--------------
A-0-3-0---3--------3--0--------------------------------------------
E------------------------------------------------------------------



CORO:


E------------------------------------------------------------------
B------------------------------------------------------------------
G-5...12...--------10---------10-----5...12...--------10---------12
D-5...12...--------10---------10-----5...12...--------10---------12
A-3...10...8-8-8-8-8--8-8-8-8--8-----3...10...8-8-8-8-8--8-8-8-8--8
E------------------------------------------------------------------


E------------------------------------------
B------------------------------------------
G-5...12...10.......----5...12...10...12...
D-5...12...10.......----5...12...10...12...
A-3...10....8.......----3...10....8...10...
E------------------------------------------

DEJAR SONAR

E----------------------------
B----------------------------
G-5-12-10-10----5-12-10-12--5
D-5-12-10-10----5-12-10-12--5
A-3-10--8--8----3-10--8-10--3
E----------------------------



SALUDOS A LA BANDA
            
Hard to play? Try these video lessons and learn fast. | Correct




comments powered by Disqus
↑ Back to top | Tablatures and chords are parodies/interpretations of the original songs. You may use it for private study, scholarship, research or language learning purposes only