» » »

6 Voltios, Por Ti Bass tabs (ver.1)

Artists:  A B C D E F G H I J K L M N O P Q R S T U V W X Y Z # 

Por Ti Bass tabs (ver.1)

6 Voltios Tabs
Rating:
5/5 (1 vote)
Por Ti lessons Tabs too difficult? Try these video lessons and learn fast
                Weno aki otra wena zong d 6Voltioz..dizfrutenla!!!
ezta zt fazil zolmnt denle loz tmpz y el ritmo poZ...

empieza en "y ezcuchar q´todo eztaba bien..."
G---------------------------------/
D---------------------------------/
A---------------444444-000222-----/
E-000000-444444-------------------/

G---------------------------------------/
D---------------------------------------/
A---------4444444-00002222---------0-2--/
E-4444444-------------------444444------/        ...TODO X2

CORO:>>>>
G---------------------------------------/
D---------------------------------------/
A---------4444444-00002222---------0-2--/
E-4444444-------------------444444------/

G---------------------------------/
D---------------------------------/
A--------------2------4---0---2---/
E--4---5---0-------4--------------/

Pique::(opzional)
G---------------------------------------/
D---------------------------------------/
A---------4444444-00002222---------0-2--/
E-4444444-------------------444444------/

vuelve en "ziento aun lo mismo..."
G-----------------------------------------/
D-----------------------------------------/
A---------------444444-000222---------0-2-/
E-000000-444444----------------444444-----/

CORO:>>>>
G---------------------------------------/
D---------------------------------------/
A---------4444444-00002222---------0-2--/
E-4444444-------------------444444------/

G--------------------------------------/
D--------------------------------------/
A--------------222------444-000-22222--/
E--444-555-000------444----------------/

Pique final::(opzional)
G---------------------------------------/
D---------------------------------------/
A---------4444444-00002222---------0-2--/           ...X4
E-4444444-------------------444444------/

zpero q lez agrade y zalduoz para mi yharim y ojala m entiendaz px...
eo daria todooo por ti..pero tu lo hariaz por mi..???--inveztigandot..jaja

                                                             
            
Submit corrections

comments powered by Disqus
↑ Back to top | 6 Voltios Bass for Por Ti. Lyrics for acoustic guitar and electric guitar. Tablatures and chords are parodies/interpretations of the original songs. You may use it for private study, scholarship, research or language learning purposes only