>
 >
Generacion Perdida 2

Generacion Perdida 2 Guitar Tabs

6 Voltios - Generacion Perdida 2 chords, tabs, tablatures, lyrics

Guitar lessons | Add/correct | Request | Top 50 tabs Artists:  A B C D E F G H I J K L M N O P Q R S T U V W X Y Z 0-9

Generacion Perdida 2 Guitar Tabs – 6 Voltios

CD, Sheet music, Poster

Do you like Generacion Perdida 2? Share with your friends now
Bass TabsTabsTabs v2Tabs v3
-----------------------------------------------------------------------------
                             Generación Perdida - 6 Voltios
-----------------------------------------------------------------------------
Saludos a la banda y gracias a Xchel por ayudar a sacar esta rola!!!

Tuning: eadgbe

Intro 2X
e|---------------------------------------------------------------------------|
B|---------------------------------------------------------------------------|
G|----8---9---8---11--9--8----8---9---8---9--8--6----------------------------|
D|--9---9---9---9-----------9---9---9---9------------------------------------|
A|---------------------------------------------------------------------------|
E|---------------------------------------------------------------------------|

e|---------------------------------------------------------------------------|
B|-------------------------------------------------------4-------------------|
G|---4---6---4----8--6--4------4---6----4----4----4---6----------------------|
D|-6---6---6---6------------6----6---6----6----6-----------------------------|
A|---------------------------------------------------------------------------|
E|---------------------------------------------------------------------------|

e|---------------------------------------------------------------------------|
B|---------------------------------------------------------------------------|
G|-----3---4---6------------1-----2-----4------------------------------------|
D|---4---4---4-----------2-----2-----2---------------------------------------|
A|---------------------------------------------------------------------------|
E|---------------------------------------------------------------------------|

Verse 1
e|---------------------------------------------------------------------------|
B|---------------------------------------------------------------------------|
G|--------------11-11---11-11----------------9-9-9-9-9---11---9---8---6------|
D|--9-9---9-9---11-11---11-11----6-6---6-6---9-9-9-9-9---11---9---8---6------|
A|--9-9---9-9----9--9----9--9----6-6---6-6---7-7-7-7-7----9---7---6---4------|
E|--7-7---7-7--------------------4-4---4-4-----------------------------------|

e|---------------------------------------------------------------------------|
B|---------------------------------------------------------------------------|
G|--------------------------11-11-11-11-11--11-11-11-11-11-------------------|
D|---9-9-9-9-9---9-9-9-9-9--11-11-11-11-11--11-11-11-11-11-------------------|
A|---9-9-9-9-9---9-9-9-9-9---9--9--9--9--9---9--9--9--9--9-------------------|
E|---7-7-7-7-7---7-7-7-7-7---------------------------------------------------|

e|---------------------------------------------------------------------------|
B|---------------------------------------------------------------------------|
G|----------------------------9-9-9-9-9----9--11--9--8--6--------------------|
D|---6-6-6-6-6---6-6-6-6-6----9-9-9-9-9----9--11--9--8--6--------------------|
A|---6-6-6-6-6---6-6-6-6-6----7-7-7-7-7----7---9--7--6--4--------------------|
E|---4-4-4-4-4---4-4-4-4-4---------------------------------------------------|

Play the intro again once
Then verse 1

Chorus play it twice
e|---------------------------------------------------------------------------|
B|---------------------------------------------------------------------------|
G|------11---*9*9*9*9---9---*9*9*9*9---9-------------------------------------|
D|--9---11---*9*9*9*9---9---*9*9*9*9---9-------------------------------------|
A|--9----9---*7*7*7*7---7---*7*7*7*7---7-------------------------------------|
E|--7------------------------------------------------------------------------|

e|---------------------------------------------------------------------------|
B|---------------------------------------------------------------------------|
G|----------------------11-11-11-11-11-11-11-11-11---9-9-9-9-9-9-9-9-9-9-9-9-|
D|--9-9-9-9-9-9-9-9-9---11-11-11-11-11-11-11-11-11---9-9-9-9-9-9-9-9-9-9-9-9-|
A|--9-9-9-9-9-9-9-9-9----9--9--9--9--9--9--9--9--9---7-7-7-7-7-7-7-7-7-7-7-7-|
E|--7-7-7-7-7-7-7-7-7--------------------------------------------------------|

Play the intro once

Solo
e|---------------------------------------------------------------------------|
B|---------------------------------------------------------------------------|
G|--8-8-8-8-8---8-8-8-8-8----------------------------9--8--6-----------------|
D|------------9-----------9--11-11-11-11-11-11-11-11----------8--------------|
A|---------------------------------------------------------------------------|
E|---------------------------------------------------------------------------|

e|---------------------------------------------------------------------------|
B|---------------------------------------------------------------------------|
G|----4---6--4---4----6--4------9-9-9-9-9-9-9-9---11--9--8-------------------|
D|--6---6------6----6---------------------------------------9----------------|
A|---------------------------------------------------------------------------|
E|---------------------------------------------------------------------------|

e|---------------------------------------------------------------------------|
B|---------------------------------------------------------------------------|
G|--8-8-8-8-8---8-8-8-8-8----------------------------9--8--6-----------------|
D|------------9-----------9--11-11-11-11-11-11-11-11----------8--------------|
A|---------------------------------------------------------------------------|
E|---------------------------------------------------------------------------|

e|---------------------------------------------------------------------------|
B|---------------------------------------------------------------------------|
G|----4---6--4--8---6--4--------9-9-9-9-9-9-9-9---11--9--8-------------------|
D|--6---6-----------------6---------------------------------9----------------|
A|---------------------------------------------------------------------------|
E|---------------------------------------------------------------------------|

Play the chorus then this twice
e|------------------------------|--------------------------------------------|
B|------------------------------|--------------------------------------------|
G|------11----9---9-------------|--11--9--8--*-*-*-*-------------------------|
D|---9--11----9---9-------------|--11--9--8--9—Let-ring----------------------|
A|---9---9----7---7-------------|---9--7--6--9-------------------------------|
E|---7--------------------------|------------7-------------------------------|





Comments


Popular 6 Voltios tabs & chords
En El Olvido Bass Tabs
Generacion Perdida Bass Tabs
Libertad Bass Tabs
Lukas Chords
19 AñOs Tabs
Atahualpa Tabs
Generacion Perdida 1 Tabs
Lejos Tabs
Nunca Te Quise Fallar Tabs
Por Ti 1 Tabs


Song lyrics



↑ Back to top | Tablatures and chords are parodies/interpretations of the original songs. You may use it for private study, scholarship, research or language learning purposes only
© 2014 AZChords.com Contact us | Privacy policy | DMCA | Add/correct tabs | Request tabs | Top 50 tabs