» » »

6 Voltios, Generacion Perdida Bass tabs (ver.1)

Artists:  A B C D E F G H I J K L M N O P Q R S T U V W X Y Z # 

Generacion Perdida Bass tabs (ver.1)

6 Voltios Tabs
 Rating:
4/5 (4 votes)
Generacion Perdida lessons Tabs too difficult? Try these video lessons and learn fast
1
                Bueno este fué el primer cover de mi banda..
esta 500% correcto, es muy sencillo, den el ritmo adecuado que es veloz

NOTE:    "v" = dejar zonar

INTRO:
G-4v--4v--431v--1v--1v--1--------|
D------------------------44v--2v-|
A--------------------------------|
E--------------------------------|

G-44444444-44444443-11111111-1111111------------------|
D-----------------------------------44440404-22220202-|
A-----------------------------------------------------|
E-----------------------------------------------------|

VERSO:"siempre moviéndome, siempre buscando..."
G--------------------------------------|
D----------44444444---------2222-421---|
A-22222222--------------------------4--|   X2
E-------------------44444444-----------|

SILENCIO:
G-44444444-44444443-11111111-1111111------------------|
D-----------------------------------44440404-22220202-|
A-----------------------------------------------------|
E-----------------------------------------------------|

VERSO:"los tombos cojudos..."
G--------------------------------------|
D----------44444444---------2222-421---|
A-22222222--------------------------4--|   X2
E-------------------44444444-----------|

CORO:"pero mi generación..."
G-----------------------------------------------------------------------|
D-----------------------------------------------------------------------|
A-222222-99997777-222222-99997799-22229999-22227777-22229999-7776664442-|
E-----------------------------------------------------------------------|

SILENCIO:
G-4v--4v--431v--1v--1v--1--------|
D------------------------44v--2v-|
A--------------------------------|
E--------------------------------|

G--------------------------------------|
D----------44444444---------2222-421---|
A-22222222--------------------------4--|   X2
E-------------------44444444-----------|

CORO:"pero mi generación..."
G-----------------------------------------------------------------------|
D-----------------------------------------------------------------------|
A-222222-99997777-222222-99997799-22229999-22227777-22229999-7776664442-|
E-----------------------------------------------------------------------|

CORO FINAL:"pero mi generación..."
G---------------------------------|
D---------------------------------|
A-2v--9v--7v--9v--7v--6v--4v--2v--|
E---------------------------------|

y eso es todo...muy fácil no??
            
Submit corrections

comments powered by Disqus
↑ Back to top | 6 Voltios Bass for Generacion Perdida. Lyrics for acoustic guitar and electric guitar. 1 Tablatures and chords are parodies/interpretations of the original songs. You may use it for private study, scholarship, research or language learning purposes only