» » »

6 Cycle Mind, Dinamayan Tabs (ver.2)

Artists:  A B C D E F G H I J K L M N O P Q R S T U V W X Y Z # 

Dinamayan Tabs (ver.2)

6 Cycle Mind Tabs
 Rating:
4.2/5 (5 votes)
Dinamayan lessons Tabs too difficult? Try these video lessons and learn fast
                diz tabz are just easy..im trying find it out pah...sori kng merong mali...kau nlng bhala magadd...\m/


INTRO:

e|---------------------------------------------------------|
B|-------------9------------7----------5-----------7-------|
G|-----------9------------8-----------6----------8---------|
D|---------9------------9------------7---------9-----------|
A|-------7------------7------------7---------7-------------|
E|---------------------------------------------------------|

VERSE1:

GTAR1: B-F#-E-F#(x4)

GTAR2: piano...play gtar tabz as well..

'e|---22-22-22--20-20-20--18-18-18-18--17-17-17--------------------------|
B|----------------------------------------------19-19-19--15-16-18-15---|
G|----------------------------------------------------------------------|
D|----------------------------------------------------------------------|
A|----------------------------------------------------------------------|
E|----------------------------------------------------------------------|x4

 B             F#     E           F#
dinamayan mo ako sa aking pag-iisa
 B              F#            E         F#
nakinig ka ng awit ko nang walang pagkasawa
 B                  F#
kung ang gabi ay lumalamig
 E                   F#
taglay ko ang yakap mo
 B                  F#
ang init ng iyong pagmamahal
    E                F# (strummed)
ay walang          kasing alab

INSTRUMENTAL:
GTAR1:
B-F#-E-F# x2

GTAR2:

e|--------------------------------------------------------|
B|---15----15----18----18----15----15----13----13---------|
G|-----15----15----15----15----15----15----15----15-------|
D|--------------------------------------------------------|
A|--------------------------------------------------------|
E|--------------------------------------------------------|

e|--------------------------------------------------------|
B|---15----15----18----18----20----18----15----15---------|
G|-----15----15----15----15----15----15----15----15-------|
D|--------------------------------------------------------|
A|--------------------------------------------------------|
E|--------------------------------------------------------|

VERSE2: (repeat verse1 tabz)

    B         F#    E              F#
at dahil sa iyo, napukaw ang damdamin ko
 B             F#         E              F#
natuto akong mangarap sa gitna ng kadiliman
  B              F#        E              F#
hinarap ko ang kahirapan, minahal ko ang buhay
      B                   G#m
ang langit ay abot-kamay lamang
       E          F#
kung ako'y nasa piling mo

INSTRUMENTAL:
(use the same tabz and chordz above)

VERSE3: (repeat verse1 tabz)

       B            F#    E            F#
at sa pagsapit ng dilim, ikaw ang liwanag ko
 B             F#      E          F#
parang isang dasal na lagi kong inuusal
    B            F#           E          F#
ang tinig mong malambing, sa diwa ko'y nakatanim
   B                 G#m         E        F#
kahit saan ka man naroroon, naririnig ko sa hangin

INSTRUMENTAL:
(use the same tabz and chordz above)

VERSE4: (repeat verse1 tabz [x6] and chordz above)

 B             F#     E          F#
dinamayan mo ako sa aking pag-iisa
 B             F#            E          F#
nakinig ka ng awit ko nang walang pagkasawa
    B           F#            E          F#
ang tinig mong malambing, sa diwa ko'y nakatanim
   B                G#m          E         F#
kahit saan ka man naroroon, naririnig ko sa hangin


   B                G#m          E         F#
Kahit saan ka man naroroon, naririnig ko sa hangin
   B                G#m          E         F#
Kahit saan ka man naroroon, naririnig ko sa hangin
   B                G#m          E         F#
Kahit saan ka man naroroon, naririnig ko sa hangin
   B                G#m          E
Kahit saan ka man naroroon, naririnig ko
   F#            B-B/Bb-G#m-F#-E-F#-B
naririnig ko sa hangin

B-B/Bb-G#m-F#-E-F#


'---END---'
            
Submit corrections

comments powered by Disqus
↑ Back to top | 6 Cycle Mind Tabs for Dinamayan. Lyrics for acoustic guitar and electric guitar. Tablatures and chords are parodies/interpretations of the original songs. You may use it for private study, scholarship, research or language learning purposes only