» » »

6 Cycle Mind, Dinamayan Tabs (ver.1)

Artists:  A B C D E F G H I J K L M N O P Q R S T U V W X Y Z # 

Dinamayan Tabs (ver.1)

6 Cycle Mind Tabs
 Rating:
4.7/5 (12 votes)
Dinamayan lessons Tabs too difficult? Try these video lessons and learn fast
                song title: dinamayan
artist/band: 6 cycle mind

PLEASE READ FIRST: guitar1- (one fret lower tuning)
                   guitar2- (standard tuning)
                            *guitar2 will be used to imitate piano sound in
                             the song
                            *since there are only 22 frets this guitar should
                             be in standard tuning

Intro:
Gtr1
eb|-------11-------9------7------9--|
Bb|-----12------11------9------11---|
Gb|---11------11------9------11-----|(2x)
Db|---------------------------------|
Ab|---------------------------------|
Eb|---------------------------------|

Gtr2
e|----------------------------------|
B|----------------------------------|
G|----------------------------------|(2x)
D|----------------------------------|
A|----------------------------------|
E|--6-------6-------6-------6-------|

Chorus:
Gtr1
eb|-------11-------9------7------9--|
Bb|-----12------11------9------11---|
Gb|---11------11------9------11-----|(3x)
Db|---------------------------------|
Ab|---------------------------------|
Eb|---------------------------------|

eb|-------11-------9--0-0---2-2-----|
Bb|-----12------11----0-0---2-2-----|
Gb|---11------11------1-1---3-3-----|
Db|-------------------2-2---4-4-----|
Ab|-------------------2-2---4-4-----|
Eb|-------------------0-0---2-2-----|

Gtr2
e|----------------------------------|
B|----------------------------------|
G|----------------------------------|
D|----------------------------------|
A|----------------------------------|
E|--6-------6-------6-------6-------|

e|----------------------------------|
B|----------------------------------|
G|----------------------------------|
D|----------------------------------|
A|----------------------------------|
E|--6-------6-----------------------|

then...

Gtr1
    B     F#    E     F#
eb|--2-2---2-2---0-0---2-2--|
Bb|--4-4---2-2---0-0---2-2--|
Gb|--4-4---3-3---1-1---3-3--|(2x)
Db|--4-4---4-4---2-2---4-4--|
Ab|--2-2---4-4---2-2---4-4--|
Eb|--2-2---2-2---0-0---2-2--|


Verse:
Gtr1
    B     F#    E     F#
eb|--2-2---2-2---0-0---2-2--|
Bb|--4-4---2-2---0-0---2-2--|
Gb|--4-4---3-3---1-1---3-3--|(4x)
Db|--4-4---4-4---2-2---4-4--|
Ab|--2-2---4-4---2-2---4-4--|
Eb|--2-2---2-2---0-0---2-2--|

Gtr2 (piano! you can play it in the guitar!)
e|---22-22-22--20-20-20--18-18-18--17-17-17------------------------|
B|------------------------------------------19-19-19--15-16-18-15--|
G|-----------------------------------------------------------------|(4x)
D|-----------------------------------------------------------------|
A|-----------------------------------------------------------------|
E|-----------------------------------------------------------------|


Instrumental:
Gtr1
    B     F#    E     F#
eb|--2-2---2-2---0-0---2-2--|
Bb|--4-4---2-2---0-0---2-2--|
Gb|--4-4---3-3---1-1---3-3--|(2x)
Db|--4-4---4-4---2-2---4-4--|
Ab|--2-2---4-4---2-2---4-4--|
Eb|--2-2---2-2---0-0---2-2--|

Gtr2 (piano! you can play it in the guitar!)
e|---------------------------------------------------|
B|---15----15----18----18----15----15----13----13----|
G|-----15----15----15----15----15----15----15----15--|
D|---------------------------------------------------|
A|---------------------------------------------------|
E|---------------------------------------------------|

e|---------------------------------------------------|
B|---15----15----18----18----20----18----15----15----|
G|-----15----15----15----15----15----15----15----15--|
D|---------------------------------------------------|
A|---------------------------------------------------|
E|---------------------------------------------------|



Verse:

Verse:
Gtr1
    B     F#    E     F#
eb|--2-2---2-2---0-0---2-2--|
Bb|--4-4---2-2---0-0---2-2--|
Gb|--4-4---3-3---1-1---3-3--|(4x)
Db|--4-4---4-4---2-2---4-4--|
Ab|--2-2---4-4---2-2---4-4--|
Eb|--2-2---2-2---0-0---2-2--|

Gtr2 (piano! you can play it in the guitar!)
e|---22-22-22--20-20-20--18-18-18--17-17-17------------------------|
B|------------------------------------------19-19-19--15-16-18-15--|
G|-----------------------------------------------------------------|(4x)
D|-----------------------------------------------------------------|
A|-----------------------------------------------------------------|
E|-----------------------------------------------------------------|


Instrumental:
Gtr1
    B     F#    E     F#
eb|--2-2---2-2---0-0---2-2--|
Bb|--4-4---2-2---0-0---2-2--|
Gb|--4-4---3-3---1-1---3-3--|(3x)
Db|--4-4---4-4---2-2---4-4--|
Ab|--2-2---4-4---2-2---4-4--|
Eb|--2-2---2-2---0-0---2-2--|

Gtr2 (piano! you can play it in the guitar!)
e|---------------------------------------------------|
B|---15----15----18----18----15----15----13----13----|
G|-----15----15----15----15----15----15----15----15--|
D|---------------------------------------------------|
A|---------------------------------------------------|
E|---------------------------------------------------|

e|---------------------------------------------------|
B|---15----15----18----18----15----15----13----13----|
G|-----15----15----15----15----15----15----15----15--|
D|---------------------------------------------------|
A|---------------------------------------------------|
E|---------------------------------------------------|

e|---------------------------------------------------|
B|---15----15----18----18----20----18----15----15----|
G|-----15----15----15----15----15----15----15----15--|
D|---------------------------------------------------|
A|---------------------------------------------------|
E|---------------------------------------------------|


Chorus:

Verse:
Gtr1
    B     F#    E     F#
eb|--2-2---2-2---0-0---2-2--|
Bb|--4-4---2-2---0-0---2-2--|
Gb|--4-4---3-3---1-1---3-3--|(6x)
Db|--4-4---4-4---2-2---4-4--|
Ab|--2-2---4-4---2-2---4-4--|
Eb|--2-2---2-2---0-0---2-2--|

Gtr2 (piano! you can play it in the guitar!)
e|---22-22-22--20-20-20--18-18-18--17-17-17------------------------|
B|------------------------------------------19-19-19--15-16-18-15--|
G|-----------------------------------------------------------------|
D|-----------------------------------------------------------------|
A|-----------------------------------------------------------------|
E|-----------------------------------------------------------------|

then...
Gtr1
    B     F#    E     F#
eb|--2-2---2-2---0-0---2-2--|
Bb|--4-4---2-2---0-0---2-2--|
Gb|--4-4---3-3---1-1---3-3--|(2x)
Db|--4-4---4-4---2-2---4-4--|
Ab|--2-2---4-4---2-2---4-4--|
Eb|--2-2---2-2---0-0---2-2--|

Gtr2 (piano! you can play it in the guitar!)
e|---22-22-22--20-20-20--18-18-18--17-17-17------------------------|
B|------------------------------------------19-19-19--15-16-18-15--|
G|-----------------------------------------------------------------|
D|-----------------------------------------------------------------|
A|-----------------------------------------------------------------|
E|-----------------------------------------------------------------|

then...
Gtr1
    B     F#    E     F#
eb|--2-2---2-2---0-0---2-2--|
Bb|--4-4---2-2---0-0---2-2--|
Gb|--4-4---3-3---1-1---3-3--|
Db|--4-4---4-4---2-2---4-4--|
Ab|--2-2---4-4---2-2---4-4--|
Eb|--2-2---2-2---0-0---2-2--|

thank you very much!!!
please rate...
            
Submit corrections

comments powered by Disqus
↑ Back to top | 6 Cycle Mind Tabs for Dinamayan. Lyrics for acoustic guitar and electric guitar. Tablatures and chords are parodies/interpretations of the original songs. You may use it for private study, scholarship, research or language learning purposes only