» » »

3 Doors Down, Your Arms Feel Like Home Tabs (ver.2)

Artists:  A B C D E F G H I J K L M N O P Q R S T U V W X Y Z # 

Your Arms Feel Like Home Tabs (ver.2)

3 Doors Down Tabs
 Rating:
4/5 (4 votes)
Your Arms Feel Like Home lessons Tabs too difficult? Try these video lessons and learn fast
                Album:3 Doors Down

For any comments,questions or suggestions,just post a comment or PM me.Pilipino Rules!!

Gtr.Legends:
p - pull-off
h - hammer-on
~ - let it ring

Gtr.Tuning:Standard(Normal)

Intro:
e|------------------------0----------------------------------|
B|-1-----1-------1------3---3---1------1-------1-----1-------|
G|---0-----0-------0--------------2------2-------2-----2-----|
D|-----2-----2-------0--------------2------2-------2-----2---|
A|-3-------------2--------------0--------------0-------------|
E|-----------------------------------------------------------|

Verse 1:I thinke I've...
Play Intro

Pre-Chorus 1:Maybe you just...
e|-------------------------------------------------------------------------------------------------|
B|------------------3-----------0-------------0-------------------------3----------1--0h1-----1p0--|
G|------2-------------4-------0---0-------0-----0------------2------------4------2---2----2-------2|
D|----3---3-------5---------2-------2---2---2-----2--------3---3------5--------2-----------2-------|
A|---3----------5---------0-----------0------------------3----------5--------0---------------------|
E|-1----------3----------------------------------------1----------3--------------------------------|

Chorus:There's a life...
e|------------------------------------------------------------------------------------------|
B|------------------------------------------------------------------------------------------|
G|-----------5555-------------------5555-------------------5555-------------------5555------|
D|-3333-7777-5555-5555----3333-7777-5555-5555----3333-7777-5555-5555----3333-7777-5555-5~---|
A|-3333-7777-3333-5555----3333-7777-3333-5555----3333-7777-3333-5555----3333-7777-3333-5~---|
E|-1111-5555------3333----1111-5555------3333----1111-5555------3333----1111-5555------3~---|

Pre-Verse 2:Play Intro

Verse 2:This life aint...
Play Intro

Pre-Chorus 2:I know we both...
Gtr.1:Play Pre-Chorus 1

Gtr.2

Repeat Chorus:

Bridge:Hold on...
e|--------------------------|
B|--------------------------|
G|--------------------------|
D|-77777-5555---7777-5555---|
A|-77777-5555---7777-5555---|
E|-55555-3333---5555-3333---|

Repeat Chorus:

Outro:Play Intro

Last Chord:
e|------|
B|-1~---|
G|-0~---|
D|-2~---|
A|-3~---|
E|------|

End...


Your Arms Feel Like Home Lyrics:

Verse  1
I think I've walked too close to love
And now I'm falling in
There's so many things this weary soul can't take

Pre-Chorus:
Maybe you just caught me by surprise
The first time that I looked into your eyes

Chorus:
There's a life inside of me
That I can feel again
It's the only thing that takes me
Where I've never been
I don't care if I lost everything that I have known
It don't matter where I lay my head tonight
Your arms feel like home
Feel like home

Verse 2:
This life aint the fairy tale we both thought it would be
But I can see your smiling face as it's staring back at me

Pre-Chorus 2:
I know we both see these changes now
I know we both understand somehow

Chorus:
There's a life inside of me
That I can feel again
It's the only thing that takes me
Where I've never been
I don't care if I lost everything that I have known
It don't matter where I lay my head tonight
Your arms feel like home
They feel like home

Bridge:
(hold on, you're home to me)
There's a life inside of me
That I can feel again
It's the only thing that takes me
Where I've never been
I don't care if I lost everything that I have known
It don't matter where I lay my head tonight
Your arms feel like home
They feel like home
            
Submit corrections

comments powered by Disqus
↑ Back to top | 3 Doors Down Tabs for Your Arms Feel Like Home. Lyrics for acoustic guitar and electric guitar. Tablatures and chords are parodies/interpretations of the original songs. You may use it for private study, scholarship, research or language learning purposes only