» » »

3 Doors Down, Ticket To Heaven Tabs (ver.3)

Artists:  A B C D E F G H I J K L M N O P Q R S T U V W X Y Z # 

Ticket To Heaven Tabs (ver.3)

3 Doors Down Tabs
 Rating:
4/5 (4 votes)
Ticket To Heaven lessons Tabs too difficult? Try these video lessons and learn fast
1
                Standard Tuning

Intro\Verse:			1st bit of verse

|-0---2-|------------------------------------3--2------|
|-3---3-|--------3-0------------------------------3----|
|-0---2-|---------------------4-2bd--0--2-0----------2-|
|-2---0-|-0h2-2--------0h2-2---------------------------|
|-------|----------------------------------------------|
|-------|----------------------------------------------| 

|------------------------------------------|
|--------3-0---------3-5--3-0-3-5-0--3-5-0-|
|------------------------------------------|
|-0h2-2-------0h2-2------------------------|
|------------------------------------------|
|------------------------------------------|

Pre-Chorus:

|-0---2--------------0---2---------|
|-3---3--3--0--3--0--3---3---------|
|-0---2--------------0---2---------|
|-2---0--------------2---0---------|
|----------------------------------|
|----------------------------------|

Chorus:

|------------------------------------|
|------------------------------------|
|----------------5-5--5-4-5-7-7-7----|
|-2-2--5-4-5--7--5-5--5-4-5-7-7-7----|
|-2-2--5-4-5--7--3-3--3-2-3-5-5-5----|
|-0-0--3-2-3--5----------------------| x2

then play the first bit of the verse.
play full verse.
Pre-chorus.
Chorus

Bridge:

|-----------------------------------------|
|-----------------------------------------|
|------7--5---------7--5-5-5-5--5-5-5-5---|
|-2~---7--5---2~----7--5-5-5-5--5-5-5-5---|
|-2~---5--3---2~----5--3-3-3-3--3-3-3-3---|
|-0~----------0~--------------------------|

Solo (played over bridge using these notes but i can't be bothered
      to work it out):

|-5-3-2-0---------------------------------------|
|---------5-3-0---------------------------------|
|---------------2-------------------------------|
|-----------------------------------------------|
|-----------------------------------------------|
|-----------------------------------------------|

Chorus

End On

|---|
|---|
|---|
|-2-|
|-2-|
|-0-|
            
Submit corrections

comments powered by Disqus
↑ Back to top | 3 Doors Down Tabs for Ticket To Heaven. Lyrics for acoustic guitar and electric guitar. 1 Tablatures and chords are parodies/interpretations of the original songs. You may use it for private study, scholarship, research or language learning purposes only