» » »

3 Doors Down, The Champion In Me Tabs (ver.2)

Artists:  A B C D E F G H I J K L M N O P Q R S T U V W X Y Z # 

The Champion In Me Tabs (ver.2)

3 Doors Down Tabs
 Rating:
4/5 (4 votes)
The Champion In Me lessons Tabs too difficult? Try these video lessons and learn fast
                (BeijingMix)
3 Doors Down: The Champiion in Me Beijing Olympic Mix




    Q   E E E E E E   Q   E E E E E E   Q   E E E E E E   E E E E E E E E
E-|-----------0-----|-----------0-----|-----------5-----|-5-----5-----5---|
B-|-------0-1---1-1-|-------0-1---1-1-|-6---6-5-6---5-5-|---5-6---5-6---5-|
G-|-2---2-----------|-0---0-----------|-----------------|-----------------|
D-|-----------------|-----------------|-----------------|-----------------|
A-|-----------------|-----------------|-----------------|-----------------|
E-|-----------------|-----------------|-----------------|-----------------|

    Q   E E E E E E   Q   E E E E E E   Q   E E E E E E   E E E E E E E E
E-|-5---5-5---0-----|-----------0-----|-----------5-----|-5-----5-----8-7-|
B-|-------0-1---0-1-|-------0-1---0-1-|-6---6-5-6---5-6-|---5-6---5-6-----|
G-|-----------------|-0---0-----------|-----------------|-----------------|
D-|-----------------|-----------------|-----------------|-----------------|
A-|-----------------|-----------------|-----------------|-----------------|
E-|-----------------|-----------------|-----------------|-----------------|

    H       H         E E E E E E E E   E E E E E E E E   E E E E E E E E
E-|-----------------|-x-x-x-x-x-x-x-x-|-x-x-x-x-x-x-x-x-|-x-x-x-x-x-x-x-x-|
B-|-10------\-------|-x-x-x-x-x-x-x-x-|-x-x-x-x-x-x-x-x-|-x-x-x-x-x-x-x-x-|
G-|-----------------|-x-x-x-x-x-x-x-x-|-x-x-x-x-x-x-x-x-|-x-x-x-x-x-x-x-x-|
D-|-----------------|-x-x-x-x-x-x-x-x-|-x-x-x-x-x-x-x-x-|-x-x-x-x-x-x-x-x-|
A-|-----------------|-x-x-x-x-x-x-x-x-|-x-x-x-x-x-x-x-x-|-x-x-x-x-x-x-x-x-|
E-|-----------------|-x-x-x-x-x-x-x-x-|-x-x-x-x-x-x-x-x-|-x-x-x-x-x-x-x-x-|

    E E E E E E E E   E E E E E E E E   E E E E E E E E   E E E E E E E E
E-|-x-x-x-x-x-x-x-x-|-x-x-x-x-x-x-x-x-|-x-x-x-x-x-x-x-x-|-x-x-x-x-x-x-x-x-|
B-|-x-x-x-x-x-x-x-x-|-x-x-x-x-x-x-x-x-|-x-x-x-x-x-x-x-x-|-x-x-x-x-x-x-x-x-|
G-|-x-x-x-x-x-x-x-x-|-x-x-x-x-x-x-x-x-|-x-x-x-x-x-x-x-x-|-x-x-x-x-x-x-x-x-|
D-|-x-x-x-x-x-x-x-x-|-x-x-x-x-x-x-x-x-|-x-x-x-x-x-x-x-x-|-x-x-x-x-x-x-x-x-|
A-|-x-x-x-x-x-x-x-x-|-x-x-x-x-x-x-x-x-|-x-x-x-x-x-x-x-x-|-x-x-x-x-x-x-x-x-|
E-|-x-x-x-x-x-x-x-x-|-x-x-x-x-x-x-x-x-|-x-x-x-x-x-x-x-x-|-x-x-x-x-x-x-x-x-|

    Q   E E E E E E   Q   E E E E E E   Q   E E E E E E   Q   E E E E E E
E-|-----------0-----|-----------0-----|-----------0-----|-----------0-----|
B-|-------0-1---1-1-|-------0-1---1-1-|-------0-1---1-1-|-------0-1---3-3-|
G-|-2---2-----------|-0---0-----------|-----------------|-----------------|
D-|-----------------|-----------------|-3---3-----------|-3---3-----------|
A-|-----------------|-----------------|-----------------|-----------------|
E-|-----------------|-----------------|-----------------|-----------------|

    Q   E E E E E E   Q   E E E E E E   Q   E E E E E E   Q   E E E E E E
E-|-----------0-----|-----------0-----|-----------0-----|-----------------|
B-|-------0-1---1-1-|-------0-1---1-1-|-------0-1---1-1-|-----------1-----|
G-|-2---2-----------|-0---0-----------|-----------------|-------0-2---2-0-|
D-|-----------------|-----------------|-3---3-----------|-3---3-----------|
A-|-----------------|-----------------|-----------------|-----------------|
E-|-----------------|-----------------|-----------------|-----------------|

    Q   E E E E E E   Q   E E E E E E   Q   E E E E E E   Q   E E E E E E
E-|-----------------|-----------------|-----------------|-----------------|
B-|-5---5-5-5-5-5-5-|-3---3-3-3-3-3-3-|-1---1-1-1-1-1-1-|-1---1-1-1-1-3-3-|
G-|-----------------|-----------------|-----------------|-----------------|
D-|-----------------|-----------------|-----------------|-----------------|
A-|-----------------|-----------------|-----------------|-----------------|
E-|-----------------|-----------------|-----------------|-----------------|

    Q   E E E E E E   Q   E E E E E E   Q   E E E E E E   Q   E E E E E E
E-|-----------------|-----------------|-----------------|-----------------|
B-|-5---5-5-5-5-5-5-|-3---3-3-3-3-3-3-|-1---1-1-1-1-1-1-|-1---1-1-1-1-3-3-|
G-|-----------------|-----------------|-----------------|-----------------|
D-|-----------------|-----------------|-----------------|-----------------|
A-|-----------------|-----------------|-----------------|-----------------|
E-|-----------------|-----------------|-----------------|-----------------|

    Q   E E E E E E   Q   E E E E E E   Q   E E E E E E   Q   E E E E E E
E-|-----------------|-----------------|-----------------|-----------------|
B-|-5---5-5-5-5-5-5-|-3---3-3-3-3-3-3-|-1---1-1-1-1-1-1-|-1---1-1-1-1-3-3-|
G-|-----------------|-----------------|-----------------|-----------------|
D-|-----------------|-----------------|-----------------|-----------------|
A-|-----------------|-----------------|-----------------|-----------------|
E-|-----------------|-----------------|-----------------|-----------------|

    Q   E E E E E E   Q   E E E E E E   Q   E E E E E E   Q   E E E E E E
E-|-----------------|-----------------|-----------------|-----------------|
B-|-5---5-5-5-5-5-5-|-3---3-3-3-3-3-3-|-1---1-1-1-1-1-1-|-1---1-1-1-1-3-3-|
G-|-----------------|-----------------|-----------------|-----------------|
D-|-----------------|-----------------|-----------------|-----------------|
A-|-----------------|-----------------|-----------------|-----------------|
E-|-----------------|-----------------|-----------------|-----------------|

    Q   E E E E E E   Q   E E E E E E   Q   E E E E E E   E E E E E E E E
E-|-----------0-----|-----------0-----|-----------5-----|-5-----5-----5---|
B-|-------0-1---1-1-|-------0-1---1-1-|-6---6-5-6---5-5-|---5-6---5-6---5-|
G-|-2---2-----------|-0---0-----------|-----------------|-----------------|
D-|-----------------|-----------------|-----------------|-----------------|
A-|-----------------|-----------------|-----------------|-----------------|
E-|-----------------|-----------------|-----------------|-----------------|

    Q   E E E E E E   Q   E E E E E E   Q   E E E E E E   E E E E E E E E
E-|-5---5-5---0-----|-----------0-----|-----------5-----|-5-----5-----8-7-|
B-|-------0-1---0-1-|-------0-1---0-1-|-6---6-5-6---5-6-|---5-6---5-6-----|
G-|-----------------|-0---0-----------|-----------------|-----------------|
D-|-----------------|-----------------|-----------------|-----------------|
A-|-----------------|-----------------|-----------------|-----------------|
E-|-----------------|-----------------|-----------------|-----------------|

    H       H         E E E E E E E E   E E E E E E E E   E E E E E E E E
E-|-----------------|-x-x-x-x-x-x-x-x-|-x-x-x-x-x-x-x-x-|-x-x-x-x-x-x-x-x-|
B-|-10------\-------|-x-x-x-x-x-x-x-x-|-x-x-x-x-x-x-x-x-|-x-x-x-x-x-x-x-x-|
G-|-----------------|-x-x-x-x-x-x-x-x-|-x-x-x-x-x-x-x-x-|-x-x-x-x-x-x-x-x-|
D-|-----------------|-x-x-x-x-x-x-x-x-|-x-x-x-x-x-x-x-x-|-x-x-x-x-x-x-x-x-|
A-|-----------------|-x-x-x-x-x-x-x-x-|-x-x-x-x-x-x-x-x-|-x-x-x-x-x-x-x-x-|
E-|-----------------|-x-x-x-x-x-x-x-x-|-x-x-x-x-x-x-x-x-|-x-x-x-x-x-x-x-x-|

    E E E E E E E E   E E E E E E E E   E E E E E E E E   E E E E E E E E
E-|-x-x-x-x-x-x-x-x-|-x-x-x-x-x-x-x-x-|-x-x-x-x-x-x-x-x-|-x-x-x-x-x-x-x-x-|
B-|-x-x-x-x-x-x-x-x-|-x-x-x-x-x-x-x-x-|-x-x-x-x-x-x-x-x-|-x-x-x-x-x-x-x-x-|
G-|-x-x-x-x-x-x-x-x-|-x-x-x-x-x-x-x-x-|-x-x-x-x-x-x-x-x-|-x-x-x-x-x-x-x-x-|
D-|-x-x-x-x-x-x-x-x-|-x-x-x-x-x-x-x-x-|-x-x-x-x-x-x-x-x-|-x-x-x-x-x-x-x-x-|
A-|-x-x-x-x-x-x-x-x-|-x-x-x-x-x-x-x-x-|-x-x-x-x-x-x-x-x-|-x-x-x-x-x-x-x-x-|
E-|-x-x-x-x-x-x-x-x-|-x-x-x-x-x-x-x-x-|-x-x-x-x-x-x-x-x-|-x-x-x-x-x-x-x-x-|

    Q   E E E E E E   Q   E E E E E E   Q   E E E E E E   Q   E E E E E E
E-|-----------0-----|-----------0-----|-----------0-----|-----------0-----|
B-|-------0-1---1-1-|-------0-1---1-1-|-------0-1---1-1-|-------0-1---3-3-|
G-|-2---2-----------|-0---0-----------|-----------------|-----------------|
D-|-----------------|-----------------|-3---3-----------|-3---3-----------|
A-|-----------------|-----------------|-----------------|-----------------|
E-|-----------------|-----------------|-----------------|-----------------|

    Q   E E E E E E   Q   E E E E E E   Q   E E E E E E   Q   E E E E E E
E-|-----------0-----|-----------0-----|-----------0-----|-----------------|
B-|-------0-1---1-1-|-------0-1---1-1-|-------0-1---1-1-|-----------1-----|
G-|-2---2-----------|-0---0-----------|-----------------|-------0-2---2-0-|
D-|-----------------|-----------------|-3---3-----------|-3---3-----------|
A-|-----------------|-----------------|-----------------|-----------------|
E-|-----------------|-----------------|-----------------|-----------------|

    Q   E E E E E E   Q   E E E E E E   Q   E E E E E E   Q   E E E E E E
E-|-----------------|-----------------|-----------------|-----------------|
B-|-5---5-5-5-5-5-5-|-3---3-3-3-3-3-3-|-1---1-1-1-1-1-1-|-1---1-1-1-1-3-3-|
G-|-----------------|-----------------|-----------------|-----------------|
D-|-----------------|-----------------|-----------------|-----------------|
A-|-----------------|-----------------|-----------------|-----------------|
E-|-----------------|-----------------|-----------------|-----------------|

    Q   E E E E E E   Q   E E E E E E   Q   E E E E E E   Q   E E E E E E
E-|-----------------|-----------------|-----------------|-----------------|
B-|-5---5-5-5-5-5-5-|-3---3-3-3-3-3-3-|-1---1-1-1-1-1-1-|-1---1-1-1-1-3-3-|
G-|-----------------|-----------------|-----------------|-----------------|
D-|-----------------|-----------------|-----------------|-----------------|
A-|-----------------|-----------------|-----------------|-----------------|
E-|-----------------|-----------------|-----------------|-----------------|

    Q   E E E E E E   Q   E E E E E E   Q   E E E E E E   Q   E E E E E E
E-|-----------------|-----------------|-----------------|-----------------|
B-|-5---5-5-5-5-5-5-|-3---3-3-3-3-3-3-|-1---1-1-1-1-1-1-|-1---1-1-1-1-3-3-|
G-|-----------------|-----------------|-----------------|-----------------|
D-|-----------------|-----------------|-----------------|-----------------|
A-|-----------------|-----------------|-----------------|-----------------|
E-|-----------------|-----------------|-----------------|-----------------|

    Q   E E E E E E   Q   E E E E E E   Q   E E E E E E   Q   E E E E E E
E-|-----------------|-----------------|-----------------|-----------------|
B-|-5---5-5-5-5-5-5-|-3---3-3-3-3-3-3-|-1---1-1-1-1-1-1-|-1---1-1-1-1-3-3-|
G-|-----------------|-----------------|-----------------|-----------------|
D-|-----------------|-----------------|-----------------|-----------------|
A-|-----------------|-----------------|-----------------|-----------------|
E-|-----------------|-----------------|-----------------|-----------------|

    W                 W                 W                 W
E-|-15--------------|-L---------------|-15--------------|-L---------------|
B-|-----------------|-----------------|-----------------|-----------------|
G-|-----------------|-----------------|-----------------|-----------------|
D-|-----------------|-----------------|-----------------|-----------------|
A-|-----------------|-----------------|-----------------|-----------------|
E-|-----------------|-----------------|-----------------|-----------------|

    W                 W                 W                 W
E-|-19--------------|-L---------------|-15--------------|-L---------------|
B-|-----------------|-----------------|-----------------|-----------------|
G-|-----------------|-----------------|-----------------|-----------------|
D-|-----------------|-----------------|-----------------|-----------------|
A-|-----------------|-----------------|-----------------|-----------------|
E-|-----------------|-----------------|-----------------|-----------------|

    Q   E E E E E E   E E E E E E E E   Q   E E Q   Q     Q   Q   H
E-|-----------8-----|-8-8---8-------8-|-------8-5---5---|-----8---5-------|
B-|---------6-------|-----------6-5---|-----------------|-----------------|
G-|-5---5-5-----5-5-|-----5---5-------|-5---5-----------|-5---------------|
D-|-----------------|-----------------|-----------------|-----------------|
A-|-----------------|-----------------|-----------------|-----------------|
E-|-----------------|-----------------|-----------------|-----------------|

    Q   E E Q   E E   Q   E E Q   E E   Q   E E Q   E E   Q   E E Q   E E
E-|---------8---8-8-|---------8---8-8-|---------8---8-8-|---------5---5-5-|
B-|-----------------|-----------------|-----------------|-----------------|
G-|-5---5-5---------|-5---5-5---------|-5---5-5---------|-5---5-5---------|
D-|-----------------|-----------------|-----------------|-----------------|
A-|-----------------|-----------------|-----------------|-----------------|
E-|-----------------|-----------------|-----------------|-----------------|

    E E E E E E E E   E E E E E E E E   E E E E E E E E   Q   E E E E E E
E-|---8-7---7-8---8-|---8-7---7-8---8-|---8-7---7-8---8-|-----------7---8-|
B-|-------8---------|-------8---------|-------8---------|-------8---------|
G-|-5-----------5---|-5-----------5---|-5-----------5---|-5---5---5---5---|
D-|-----------------|-----------------|-----------------|-----------------|
A-|-----------------|-----------------|-----------------|-----------------|
E-|-----------------|-----------------|-----------------|-----------------|

    E E E E E E E E   E E E E E E E E   E E E E E E E E   Q   E E E E E E
E-|---8-7---7-8---8-|---8-7---7-8---8-|---8-7---7-8---8-|-----------------|
B-|-------8---------|-------8---------|-------8---------|-----------------|
G-|-5-----------5---|-5-----------5---|-5-----------5---|-5---5---5---5---|
D-|-----------------|-----------------|-----------------|-----------------|
A-|-----------------|-----------------|-----------------|-------7---5-----|
E-|-----------------|-----------------|-----------------|---------------8-|

    E E E E E E E E   E E E E E E E E   E E E E E E E E   Q   E E E E E E
E-|---8-7---7-8---8-|---8-7---7-8---8-|---8-7---7-8---8-|-----------7---8-|
B-|-------8---------|-------8---------|-------8---------|-------8---------|
G-|-5-----------5---|-5-----------5---|-5-----------5---|-5---5---5---5---|
D-|-----------------|-----------------|-----------------|-----------------|
A-|-----------------|-----------------|-----------------|-----------------|
E-|-----------------|-----------------|-----------------|-----------------|

    E E E E E E E E   E E E E E E E E   E E E E E E E E   Q   E E E E E E
E-|---8-7---7-8---8-|---8-7---7-8---8-|---8-7---7-8---8-|-----------------|
B-|-------8---------|-------8---------|-------8---------|-----------------|
G-|-5-----------5---|-5-----------5---|-5-----------5---|-5---5---5---5---|
D-|-----------------|-----------------|-----------------|-----------------|
A-|-----------------|-----------------|-----------------|-------7---5-----|
E-|-----------------|-----------------|-----------------|---------------8-|

    E E E E E E E E   E E E E E E E E   E E E E E E E E   Q   E E E E E E
E-|---8-7---7-8---8-|---8-7---7-8---8-|---8-7---7-8---8-|-----------7---8-|
B-|-------8---------|-------8---------|-------8---------|-------8---------|
G-|-5-----------5---|-5-----------5---|-5-----------5---|-5---5---5---5---|
D-|-----------------|-----------------|-----------------|-----------------|
A-|-----------------|-----------------|-----------------|-----------------|
E-|-----------------|-----------------|-----------------|-----------------|

    E E E E E E E E   E E E E E E E E   E E E E E E E E   Q   E E E E E E
E-|---8-7---7-8---8-|---8-7---7-8---8-|---8-7---7-8---8-|-----------------|
B-|-------8---------|-------8---------|-------8---------|-----------------|
G-|-5-----------5---|-5-----------5---|-5-----------5---|-5---5---5---5---|
D-|-----------------|-----------------|-----------------|-----------------|
A-|-----------------|-----------------|-----------------|-------7---5-----|
E-|-----------------|-----------------|-----------------|---------------8-|

    E E E E E E E E   E E E E E E E E   E E E E E E E E   Q   E E E E E E
E-|---8-7---7-8---8-|---8-7---7-8---8-|---8-7---7-8---8-|-----------7---8-|
B-|-------8---------|-------8---------|-------8---------|-------8---------|
G-|-5-----------5---|-5-----------5---|-5-----------5---|-5---5---5---5---|
D-|-----------------|-----------------|-----------------|-----------------|
A-|-----------------|-----------------|-----------------|-----------------|
E-|-----------------|-----------------|-----------------|-----------------|

    E E E E E E E E   E E E E E E E E   E E E E E E E E   Q   E E E E E E
E-|---8-7---7-8---8-|---8-7---7-8---8-|---8-7---7-8---8-|-----------------|
B-|-------8---------|-------8---------|-------8---------|-----------------|
G-|-5-----------5---|-5-----------5---|-5-----------5---|-5---5---5---5---|
D-|-----------------|-----------------|-----------------|-----------------|
A-|-----------------|-----------------|-----------------|-------7---5-----|
E-|-----------------|-----------------|-----------------|---------------8-|

    Q.    Q   E E E   Q.    Q   E E E   Q.    Q   E E E   Q.    Q   E E E
E-|-----------------|-----------------|-----------------|-----------------|
B-|-----------------|-----------------|-----------------|-----------------|
G-|-------5---4-5-4-|-------5---4-5-7-|-------5---4-5-4-|-------5---4-5-7-|
D-|-7---------------|-5---------------|-3---------------|-3---------------|
A-|-----------------|-----------------|-----------------|-----------------|
E-|-----------------|-----------------|-----------------|-----------------|

    Q.    Q   E E E   Q.    Q   E E E   Q.    Q   E E E   Q.    Q   E E E
E-|-----------------|-----------------|-----------------|-----------------|
B-|-----------------|-----------------|-----------------|-----------------|
G-|-------5---4-5-4-|-------5---4-5-7-|-------5---4-5-4-|-------5---4-5-7-|
D-|-7---------------|-5---------------|-3---------------|-3---------------|
A-|-----------------|-----------------|-----------------|-----------------|
E-|-----------------|-----------------|-----------------|-----------------|

    Q   H.
E-|-----------------|
B-|-----------------|
G-|-----------------|
D-|-----------------|
A-|-12---\----------|
E-|-----------------|
            
Submit corrections

comments powered by Disqus
↑ Back to top | 3 Doors Down Tabs for The Champion In Me. Lyrics for acoustic guitar and electric guitar. Tablatures and chords are parodies/interpretations of the original songs. You may use it for private study, scholarship, research or language learning purposes only