» » »

3 Doors Down, So I Need You Tabs (ver.3)

Artists:  A B C D E F G H I J K L M N O P Q R S T U V W X Y Z # 

So I Need You Tabs (ver.3)

3 Doors Down Tabs
 Rating:
4/5 (4 votes)
So I Need You lessons Tabs too difficult? Try these video lessons and learn fast
                
***********************************************************************
***********************************************************************
would credit the person who did it but they were not registered. I 
used their tab making of this and it was very helpfull. As there was no 
name I have included the original tab at the bottom of this tab as some 
sort of credit.
***********************************************************************
***********************************************************************
I have tabbed a simple version of the song mainly chords. I think it's 
pretty accurate. I have tried to tab rhythm but forgive me if it's not 
spot on. You can figure it out easy enough.

Standard Tuning (E-A-D-G-B-e)


Intro:  

       Em7     Em7      D              C               B        C

e|------3-------3-------5-5-5-5-5-5----3-3-3-3-3-3-----2-2-2----3-3--|  
B|------3-------3-------5-5-5-5-5-5----3-3-3-3-3-3-----2-2-2----3-3--|  
G|------0-------0-------7-7-7-7-7-7----5-5-5-5-5-5-----4-4-4----5-5--|  
D|------0-------0-------7-7-7-7-7-7----5-5-5-5-5-5-----4-4-4----5-5--|  
A|------2-------2-------5-5-5-5-5-5----3-3-3-3-3-3-----2-2-2----3-3--|  
E|--0-------0-----------5-5-5-5-5-5----3-3-3-3-3-3-----2-2-2----3-3--|  

       Em7     Em7      D              C               B        C

e|------3-------3-------5-5-5-5-5-5----3-3-3-3-3-3-----2-2-2----3-3--|  
B|------3-------3-------5-5-5-5-5-5----3-3-3-3-3-3-----2-2-2----3-3--|  
G|------0-------0-------7-7-7-7-7-7----5-5-5-5-5-5-----4-4-4----5-5--|  
D|------0-------0-------7-7-7-7-7-7----5-5-5-5-5-5-----4-4-4----5-5--|  
A|------2-------2-------5-5-5-5-5-5----3-3-3-3-3-3-----2-2-2----3-3--|  
E|--0-------0-----------5-5-5-5-5-5----3-3-3-3-3-3-----2-2-2----3-3--|  


Verse 1:

        Em7         D             G           A

e|------3-3-333-----5-555-555-----3-3-333-----7-777-777-------------|  
B|------3-3-333-----5-555-555-----3-3-333-----7-777-777-------------|  
G|------0-0-000-----7-777-777-----3-3-333-----7-777-777-------------|  
D|------2-2-222-----7-777-777-----5-5-555-----9-999-999-------------|  
A|------2-2-222-----5-555-555-----5-5-555-----9-999-999-------------|  
E|------------------5-555-555-----3-3-333-----7-777-777-------------| 
If you could step into my head... 
and if you woke up in my bed...


Here there are 2 ways of playing it. Pick the melody or just play the 
chords. The chords are right and i think the melody sounds right.

CHORDS:
        C           E
e|------333---------777-------|  
B|------333---------777-------|  
G|------555---------999-------|  
D|------555---------999-------|  
A|------333---------777-------|  
E|------333---------777-------|
or would you simply let it lie.. 
I cant get you out of this head... 

        C           D
e|------333---------555-------|  
B|------333---------555-------|  
G|------555---------777-------|  
D|------555---------777-------|  
A|------333---------555-------|  
E|------333---------555-------|
and i will say.                    (then to chorus...)


OR BY PICKING: (Strum quick between each chord to sound like the 
recording)

    (C)          (E)
e|---------------------------------------| 
B|------1----1-------3-----3-------------| 
G|--------0---0--------0-----0-----------| 
D|----2-----2------2-----2---------------| 
A|--3------------------------------------| 
E|---------------0-----------------------| 
or would you simply let it lie.. 
I cant get you out of this head... 

    (C)            (D)
e|------------------------------| 
B|------1-----1-----------------| 
G|--------0----0------2----2----| 
D|----2-----2------0-----0---0--| 
A|--3---------------------------| 
E|------------------------------| 
and i will say.                    (then to chorus...)



Chorus:

       Em7     Em7      D              C               B        C

e|------3-------3-------5-5-5-5-5-5----3-3-3-3-3-3-----2-2-2----3-3--|
B|------3-------3-------5-5-5-5-5-5----3-3-3-3-3-3-----2-2-2----3-3--|
G|------0-------0-------7-7-7-7-7-7----5-5-5-5-5-5-----4-4-4----5-5--|  
D|------0-------0-------7-7-7-7-7-7----5-5-5-5-5-5-----4-4-4----5-5--|  
A|------2-------2-------5-5-5-5-5-5----3-3-3-3-3-3-----2-2-2----3-3--|  
E|----0-------0---------5-5-5-5-5-5----3-3-3-3-3-3-----2-2-2----3-3--|
Oh no I can't let you go... 
Because you're holding up my world... 
Your imitation of my walk...
It's just a couple of the million things...
So I need...

        Em7         D             G           A

e|------3-3-333-----5-555-555-----3-3-333-----7777-777-------------|
B|------3-3-333-----5-555-555-----3-3-333-----7777-777-------------|  
G|------0-0-000-----7-777-777-----3-3-333-----7777-777-------------|  
D|------2-2-222-----7-777-777-----5-5-555-----9999-999-------------|  
A|------2-2-222-----5-555-555-----5-5-555-----9999-999-------------|  
E|------------------5-555-555-----3-3-333-----7777-777-------------|
...you (from chorus)
So i need you...



Verse 2:

        Em7         D             G           A

e|------3-3-333-----5-555-555-----3-3-333-----7-777-777-------------|  
B|------3-3-333-----5-555-555-----3-3-333-----7-777-777-------------|  
G|------0-0-000-----7-777-777-----3-3-333-----7-777-777-------------|  
D|------2-2-222-----7-777-777-----5-5-555-----9-999-999-------------|  
A|------2-2-222-----5-555-555-----5-5-555-----9-999-999-------------|  
E|------------------5-555-555-----3-3-333-----7-777-777-------------| 
And if I jumped off the Brooklyn Bridge... 
And if I made you mad today...

(This bit same as verse 1, either way...)

CHORDS:
        C           E
e|------333---------777-------|  
B|------333---------777-------|  
G|------555---------999-------|  
D|------555---------999-------|  
A|------333---------777-------|  
E|------333---------777-------|
Or would you say that you don't care...
Like the fool who is drowning in dispair... 

        C           D
e|------333---------555-------|  
B|------333---------555-------|  
G|------555---------777-------|  
D|------555---------777-------|  
A|------333---------555-------|  
E|------333---------555-------|
And screamin'.                    (then to chorus...)


OR BY PICKING: (Strum quick between each chord to sound like the 
recording)

    C            E
e|---------------------------------------| 
B|------1----1-------3-----3-------------| 
G|--------0---0--------0-----0-----------| 
D|----2-----2------2-----2---------------| 
A|--3------------------------------------| 
E|---------------0-----------------------| 
Or would you say that you don't care...
Like the fool who is drowning in dispair...  

    C              D
e|------------------------------| 
B|------1-----1-----------------| 
G|--------0----0------2----2----| 
D|----2-----2------0-----0---0--| 
A|--3---------------------------| 
E|------------------------------| 
And screamin'.                    (then to chorus...)



Chorus:

       Em7     Em7      D              C               B        C

e|------3-------3-------5-5-5-5-5-5----3-3-3-3-3-3-----2-2-2----3-3--|
B|------3-------3-------5-5-5-5-5-5----3-3-3-3-3-3-----2-2-2----3-3--|
G|------0-------0-------7-7-7-7-7-7----5-5-5-5-5-5-----4-4-4----5-5--|  
D|------0-------0-------7-7-7-7-7-7----5-5-5-5-5-5-----4-4-4----5-5--|  
A|------2-------2-------5-5-5-5-5-5----3-3-3-3-3-3-----2-2-2----3-3--|  
E|----0-------0---------5-5-5-5-5-5----3-3-3-3-3-3-----2-2-2----3-3--|
Oh no I can't let you go... 
Because you're holding up my world... 
Your imitation of my walk...
It's just a couple of the million things...
So I need...

        Em7         D             G           A

e|------3-3-333-----5-555-555-----3-3-333-----7777-777-------------|  
B|------3-3-333-----5-555-555-----3-3-333-----7777-777-------------|  
G|------0-0-000-----7-777-777-----3-3-333-----7777-777-------------|  
D|------2-2-222-----7-777-777-----5-5-555-----9999-999-------------|  
A|------2-2-222-----5-555-555-----5-5-555-----9999-999-------------|  
E|------------------5-555-555-----3-3-333-----7777-777-------------|
...you (from chorus)
So i need you...



SOLO: (This is my version of what is played, i've only used chords. You 
can figure out rhythm.)

e|----------------------------------------|  
B|----------------------------------------|  
G|---4----/7----/9----/11----/12----/11---|  
D|---x-----x-----x-----x------x------x----|  
A|---2----/5----/7----/9-----/10----/9----|  
E|----------------------------------------|
I'm on my own... x3


(You can strum the chords as well if u got 2 guitars, woteva...)
      
      Em7            D              G             A
e|------------------------------------------------------------------| 
B|------------------------------------------------------------------| 
G|----9/11/12/11/9---9/11/12/11/9---9/11/12/11/12/14/12/11/9/7------| 
D|----x-x--x--x--x---x-x--x--x--x---x-x--x--x--x--x--x--x--x-x------| 
A|------------------------------------------------------------------| 
E|------------------------------------------------------------------| 

e|------------------------------------------------------------------| 
B|------------------------------------------------------------------| 
G|-----9/11/12/11/9---9/11/12/11/9---9/11/12/11/12/14/12/11/12------| 
D|-----x-x--x--x--x---x-x--x--x--x---x-x--x--x--x--x--x--x--x-------| 
A|------------------------------------------------------------------| 
E|------------------------------------------------------------------|


Chorus:

       Em7     Em7      D              C               B        C

e|------3-------3-------5-5-5-5-5-5----3-3-3-3-3-3-----2-2-2----3-3--|  
B|------3-------3-------5-5-5-5-5-5----3-3-3-3-3-3-----2-2-2----3-3--|  
G|------0-------0-------7-7-7-7-7-7----5-5-5-5-5-5-----4-4-4----5-5--|  
D|------0-------0-------7-7-7-7-7-7----5-5-5-5-5-5-----4-4-4----5-5--|  
A|------2-------2-------5-5-5-5-5-5----3-3-3-3-3-3-----2-2-2----3-3--|  
E|----0-------0---------5-5-5-5-5-5----3-3-3-3-3-3-----2-2-2----3-3--|
Oh no I can't let you go... 
Because you're holding up my world... 
Your imitation of my walk...
It's just a couple of the million things...
So I need...

        Em7         D             G           A

e|------3-3-333-----5-555-555-----3-3-333-----7777-777-------------|  
B|------3-3-333-----5-555-555-----3-3-333-----7777-777-------------|  
G|------0-0-000-----7-777-777-----3-3-333-----7777-777-------------|  
D|------2-2-222-----7-777-777-----5-5-555-----9999-999-------------|  
A|------2-2-222-----5-555-555-----5-5-555-----9999-999-------------|  
E|------------------5-555-555-----3-3-333-----7777-777-------------|
...you (from chorus)
So i need you...


End On:

       Em7

e|------3-----|  
B|------3-----|  
G|------0-----|  
D|------2-----|  
A|------2-----|  
E|------------|


There you have it! Bear in mind this is my first tab so there are certainly 
improvised but you get the idea. If anyone has any improvements for it 
please let me know. Thanks again for the previous tabs.


| /  slide up
| \  slide down
| h  hammer-on
| p  pull-off
| ~  vibrato
| +  harmonic
| x  Mute note



****************************************************************************
****************************************************************************
The original Tab
****************************************************************************
****************************************************************************
            
This is the Tab....the first one i sent was totally wrong because i missed  
the G string(whoops), but this one is correct  I figured since there were no  
other tabs done for this song, that I would give it a try.  This tab is very  
accurate, I'm still trying to figure out the verses and chorus, but the 
intro is pretty damn cool itself!  

3-Doors Down-So I Need You(Acoustic)  

Intro  

e|------0-------0-------5-5-5-5-5-5----3-3-3-3-3-3-----2-2-2----3-3--|  
a|------0-------0-------5-5-5-5-5-5----3-3-3-3-3-3-----2-2-2----3-3--|  
d|------0-------0-------7-7-7-7-7-7----5-5-5-5-5-5-----4-4-4----5-5--|  
g|------0-------0-------7-7-7-7-7-7----5-5-5-5-5-5-----4-4-4----5-5--|  
b|------2-------2-------5-5-5-5-5-5----3-3-3-3-3-3-----2-2-2----3-3--|  
E|--0-------0-----------5-5-5-5-5-5----3-3-3-3-3-3-----2-2-2----3-3--|  


e|------0-------0-------5-5-5-5-5-5----3-3-3-3-3-3-----2-2-2----3-3--|  
a|------0-------0-------5-5-5-5-5-5----3-3-3-3-3-3-----2-2-2----3-3--|  
d|------0-------0-------7-7-7-7-7-7----5-5-5-5-5-5-----4-4-4----5-5--|  
g|------0-------0-------7-7-7-7-7-7----5-5-5-5-5-5-----4-4-4----5-5--|  
b|------2-------2-------5-5-5-5-5-5----3-3-3-3-3-3-----2-2-2----3-3--|  
E|--0-------0-----------5-5-5-5-5-5----3-3-3-3-3-3-----2-2-2----3-3--|  
****************************************************************************
****************************************************************************
            
Submit corrections

comments powered by Disqus
↑ Back to top | 3 Doors Down Tabs for So I Need You. Lyrics for acoustic guitar and electric guitar. Tablatures and chords are parodies/interpretations of the original songs. You may use it for private study, scholarship, research or language learning purposes only