» » »

3 Doors Down, Kryptonite Tab And Fingering Explained Tabs (ver.1)

Artists:  A B C D E F G H I J K L M N O P Q R S T U V W X Y Z # 

Kryptonite Tab And Fingering Explained Tabs (ver.1)

3 Doors Down Tabs
 Rating:
4/5 (4 votes)
Kryptonite Tab And Fingering Explained lessons Tabs too difficult? Try these video lessons and learn fast
1
                Tuning:        Standard


I've seen this tab on here before and I tried learning a long time ago
but I couldn't get the fingering right.  One day I was playing around
with power chords with 7ths and i figured out what fingers to play the
intro with

B57:
POINTER FINGER 2nd fret; A string
RING FINGER 4th fret D string
PINKEY 4th fret G string
MIDDLE FINGER 3rd fret B string

The chords for the verse are B, G, & A.  On the chorus they're 
B5, G5, & A5.

That how you form the opening chord


INTRO: clean guitar

   +   +   +   +     +   +   +   +     +   +   +   +     +   +   +   +  
e :-----------------|-----------------|-----------------|-----------------|
B :------3-----0----|--------------0--|------3-----0----|--------------0--|
G :----4---4--------|------0-----2----|----4---4--------|------0-----2----|
D :--4-------4------|----0-----2------|--4-------4------|----0-----2------|
A :2----------------|--2-----0--------|2----------------|--2-----0--------|
E :-----------------|3----------------|-----------------|3----------------|(x9)


  CHORUS W/ DISTORTION:

e :--------------------------------------------------------|
B :--------------------------------------------------------|
G :4--4-4-4--4-4-4--4-4-4--4-4---------------2--2-2-2--2-2-|
D :4--4-4-4--4-4-4--4-4-4--4-4-5--5-5-5--5-5-2--2-2-2--2-2-|
A :2--2-2-2--2-2-2--2-2-2--2-2-5--5-5-5--5-5-0--0-0-0--0-0-|
E :----------------------------3--3-3-3--3-3---------------|


GUITAR SOLO W/DISTORTION:
e :----------------------------------------------------------|
B :----------------------------------------------------------|
G :----------------------------------------------------------|
D :----------------------------------------------------------|
A :7\2-2-4-5-4-5-4-7-5-4-5-4-5-2-0-2-0-2-0----------00000000-|
E :----------------------------------------33333333----------|


SONG PATTERN:

INTRO
CHORUS
INTRO
CHORUS
SOLO
INTRO(EXCEPT x3 instead of 9)
CHORUS
SOLO
END ON

Peace!!!!!!!! John
            
Submit corrections

comments powered by Disqus
↑ Back to top | 3 Doors Down Tabs for Kryptonite Tab And Fingering Explained. Lyrics for acoustic guitar and electric guitar. 1 Tablatures and chords are parodies/interpretations of the original songs. You may use it for private study, scholarship, research or language learning purposes only