» » »

Kryptonite Bass tabs (ver.1)

Artists:  A B C D E F G H I J K L M N O P Q R S T U V W X Y Z # 

Kryptonite Bass tabs (ver.1)

3 Doors Down
Rating:
0/5 (0 votes)

Hard to play? Try these video lessons and learn fast.
                This song is very easy to play; it's a good start for a beginning bass player.

This tab is strongly based on the one published
Somes changes have been made in the verse 4 and the presentation
has been modified.  The timing should be right.

Thanks to email any corrections, improvements or comments
Also, feel free to tell me if you like this tab.

Riff 1: Verse 1 and 2
  1 & 2 & 3 & 4 &  1 & 2 & 3 & 4 &
G|----------------|----------------|
D|----------------|----------------|
A|2---------------|-------0--------|
E|----------------|3---------------|

Riff 2: Heavier part
  1 & 2 & 3 & 4 &  1 & 2 & 3 & 4 &
G|----------------|----------------|
D|----------------|----------------|
A|2-2-22--2-2--22-|--------0-0-00--|
E|----------------|3-3-33----------|

Riff 3: Chorus (always repeat twice)
  1 & 2 & 3 & 4 &  1 & 2 & 3 & 4 &  1 & 2 & 3 & 4 &  1 & 2 & 3 & 4 &       
G|----------------|----------------|----------------|----------------|
D|----------------|----------------|----------------|----------------|
A|2-2-2-2-2-2-2-2-|--------0-0-0-0-|2-2-2-2-2-2-2-2-|----------------|
E|----------------|3-3-3-3---------|----------------|0-0-0-0-2-2-2-2-|

Riff 4: Main riff
  1 & 2 & 3 & 4 &  1 & 2 & 3 & 4 &  1 & 2 & 3 & 4 &  1 & 2 & 3 & 4 &
G|----------------|----------------|----------------|----------------|
D|----------------|----------------|----------------|----------------|
A|2---------------|--------0-------|2---------------|----------------|
E|----------------|3---------------|----------------|0------2--------|

Riff 5: Verse 4
  1  &  2  &  3  &  4  &   1  &  2  &  3  &  4  &
G|------------------------|------------------------|
D|9--9--9--9--9--9--9--9--|7--7--7--7--------------|
A|------------------------|------------10-10-10-10-|
E|------------------------|------------------------|

ORDER:

Silence 4 bars - Guitar introduction
Riff 1 (2X) Music only
Riff 1 (4X) Verse 1
Riff 2 (2X) Heavier part

Riff 1 (4X) Verse 2
Riff 3 (2X) Chorus
Riff 1 (2X) Music only

Riff 4 (2X) Verse 3
Riff 3 (2X) Chorus

Riff 4 (2X) Guitar solo
Riff 5 (2X) Music only
Riff 5 (4X) Verse 4
Riff 3 (2X) Chorus
Riff 4 (2X) End
Then play the note B


It's so simple ... Enjoy!!
            
Hard to play? Try these video lessons and learn fast. | Correct




comments powered by Disqus
↑ Back to top | Tablatures and chords are parodies/interpretations of the original songs. You may use it for private study, scholarship, research or language learning purposes only