>
 >
Kryptonite 11

Kryptonite 11 Guitar Tabs

3 Doors Down - Kryptonite 11 chords, tabs, tablatures, lyrics

Guitar lessons | Add/correct | Request | Top 50 tabs Artists:  A B C D E F G H I J K L M N O P Q R S T U V W X Y Z 0-9

Kryptonite 11 Guitar Tabs – 3 Doors Down

CD, Sheet music, Poster

Do you like Kryptonite 11? Share with your friends now
Bass TabsBass Tabs v2Bass Tabs v3Bass Tabs v4Bass Tabs v5ChordsChords v2Chords v3Chords v4Chords v5Chords v6Drum TabsTabsTabs v2Tabs v10Tabs v11Tabs v12Tabs v3Tabs v4Tabs v5Tabs v6Tabs v7Tabs v8Tabs v9Ukulele
3 Doors Down - Krytonite. ok this is it hopefully after searching and listening :/ phew 
this was hard. the strumming for the bridge and all that stuff is DDUUDU

Verse
(clean)
e|----------------------------------------------------|
b|-----------3--------------------------0-------------|
g|---------4---4----0---------0-------2-----Repeat 3x-|
d|------4--------4----------0-------2-----------------|
a|---2--------------------2-------0-------------------|
E|----------------------3-----------------------------|

e|-------------------------------0--------------------|
b|---------3-----------------------0------------------|
g|------4---4---0---------0----------0----------------|
d|---4--------4---------0-----------------------------|
a|-2------------------2-------------------------------|
E|------------------3---------------------------------|

Bridge
(clean, strummed)
e|--0--0--0--0--3--3--0--0--|
b|--3--3--3--3--3--3--0--0--|
g|--4--4--4--4--0--0--2--2--|
d|--4--4--4--4--0--0--2--2--|
a|--2--2--2--2--2--2--2--2--|
E|--0--0--0--0--3--3--0--0--|

e|--0--0--0--0--3--3--0--0--|
b|--3--3--3--3--3--3--0--0--|
g|--4--4--4--4--0--0--2--2--|
d|--4--4--4--4--0--0--2--2--|
a|--2--2--2--2--2--2--2--2--|
E|--0--0--0--0--3--3--0--0--|

Verse
(clean)
e|-----------------------------------------|
b|-----------3--------------------------0--|
g|---------4---4----0---------0-------2----|
d|------4--------4----------0-------2------|
a|---2--------------------2-------0--------|
E|----------------------3------------------|

e|----------------------------------0------|
b|---------3--------------------------0----|
g|------4---4---0---------0----------------|
d|---4--------4---------0------------------|
a|-2------------------2--------------------|
E|------------------3----------------------|

e|---------------------------------------------------------------------|
b|-----------3--------------------------0------------------------------|
g|---------4---4----0---------0-------2--------------------------------|
d|------4--------4----------0-------2----------------------------------|
a|---2--------------------2-------0------------------------------------|
E|----------------------3----------------------------------------------|

e|-------------------------------0-------------------------------------|
b|---------3-----------------------0-----------------------------------|
g|------4---4---0---------0----------0---------------------------------|
d|---4--------4---------0----------------------------------------------|
a|-2------------------2------------------------------------------------|
E|------------------3--------------------------------------------------|

Chorus
(distortion)
e|---------------------------------------------------------------------|
b|---------------------------------------------------------------------|
g|---------------------------------------------------------------------|
d|--4--4-4--4-4--4-4--4------------------------------------------------|
a|--2--2-2--2-2--2-2--2-5--5-5--5-7--7-7--7----------------------------|
E|----------------------3--3-3--3-5--5-5--5----------------------------|

e|---------------------------------------------------------------------|
b|---------------------------------------------------------------------|
g|---------------------------------------------------------------------|
d|--4--4-4--4-4--4-4--4------------------------------------------------|
a|--2--2-2--2-2--2-2--2-3--3-3--3-5--5-5--5----------------------------|
E|----------------------1--1-1--1-3--3-3--3----------------------------|

e|---------------------------------------------------------------------|
b|---------------------------------------------------------------------|
g|---------------------------------------------------------------------|
d|--4--4-4--4-4--4-4--4------------------------------------------------|
a|--2--2-2--2-2--2-2--2-5--5-5--5-7--7-7--7----------------------------|
E|----------------------3--3-3--3-5--5-5--5----------------------------|

e|---------------------------------------------------------------------|
b|---------------------------------------------------------------------|
g|---------------------------------------------------------------------|
d|--4--4-4--4-4--4-4--4------------------------------------------------|
a|--2--2-2--2-2--2-2--2-3----------5-----------------------------------|
E|----------------------1----------3-----------------------------------|

Bridge
(clean, strummed)
e|--0--0--0--0--3--3--0--0---------------------------------------------|
b|--3--3--3--3--3--3--0--0---------------------------------------------|
g|--4--4--4--4--0--0--2--2---------------------------------------------|
d|--4--4--4--4--0--0--2--2---------------------------------------------|
a|--2--2--2--2--2--2--2--2---------------------------------------------|
E|--0--0--0--0--3--3--0--0---------------------------------------------|

e|--0--0--0--0--3--3--0--0---------------------------------------------|
b|--3--3--3--3--3--3--0--0---------------------------------------------|
g|--4--4--4--4--0--0--2--2---------------------------------------------|
d|--4--4--4--4--0--0--2--2---------------------------------------------|
a|--2--2--2--2--2--2--2--2---------------------------------------------|
E|--0--0--0--0--3--3--0--0---------------------------------------------|

Verse
(clean)
e|---------------------------------------------------------------------|
b|-----------3--------------------------0------------------------------|
g|---------4---4----0---------0-------2-----Repeat 3x------------------|
d|------4--------4----------0-------2----------------------------------|
a|---2--------------------2-------0------------------------------------|
E|----------------------3----------------------------------------------|

e|-------------------------------0-------------------------------------|
b|---------3-----------------------0-----------------------------------|
g|------4---4---0---------0----------0---------------------------------|
d|---4--------4---------0----------------------------------------------|
a|-2------------------2------------------------------------------------|
E|------------------3--------------------------------------------------|

Chorus
(distortion)
e|---------------------------------------------------------------------|
b|---------------------------------------------------------------------|
g|---------------------------------------------------------------------|
d|--4--4-4--4-4--4-4--4------------------------------------------------|
a|--2--2-2--2-2--2-2--2-5--5-5--5-7--7-7--7----------------------------|
E|----------------------3--3-3--3-5--5-5--5----------------------------|

e|---------------------------------------------------------------------|
b|---------------------------------------------------------------------|
g|---------------------------------------------------------------------|
d|--4--4-4--4-4--4-4--4------------------------------------------------|
a|--2--2-2--2-2--2-2--2-3--3-3--3-5--5-5--5----------------------------|
E|----------------------1--1-1--1-3--3-3--3----------------------------|

e|---------------------------------------------------------------------|
b|---------------------------------------------------------------------|
g|---------------------------------------------------------------------|
d|--4--4-4--4-4--4-4--4------------------------------------------------|
a|--2--2-2--2-2--2-2--2-5--5-5--5-7--7-7--7----------------------------|
E|----------------------3--3-3--3-5--5-5--5----------------------------|

e|---------------------------------------------------------------------|
b|---------------------------------------------------------------------|
g|---------------------------------------------------------------------|
d|--4--4-4--4-4--4-4--4------------------------------------------------|
a|--2--2-2--2-2--2-2--2-3----------5-----------------------------------|
E|----------------------1----------3-----------------------------------|

Solo
(distortion)
e|---------------------------------------------------------------------|
b|---------------------------------------------------------------------|
g|---------------------------------------------------------------------|
d|------------------2-----------------------------02020202-------------|
a|--2--4--5--4--5-4----5--4-5-4-0-2--0--2--0--2-0---------45454545-----|
E|---------------------------------------------------------------------|

e|---------------------------------------------------------------------|
b|---------------------------------------------------------------------|
g|---------------------------------------------------------------------|
d|------------------2-----------------------------02020202-------------|
a|--2--4--5--4--5-4----5--4-5-4-0-2--0--2--0--2-0---------45454545-2---|
E|---------------------------------------------------------------------|

Refrain
(clean)
e|-------------0----------3--------------------------------------------|
b|--3----------2----------3--------------------------------------------|
g|--4----------2----------0--------------------------------------------|
d|--4----------2----------0--------------------------------------------|
a|--2----------0----------2--------------------------------------------|
E|------------------------3--------------------------------------------|

Chorus
(distortion)
e|---------------------------------------------------------------------|
b|---------------------------------------------------------------------|
g|---------------------------------------------------------------------|
d|--4--4-4--4-4--4-4--4------------------------------------------------|
a|--2--2-2--2-2--2-2--2-5--5-5--5-7--7-7--7----------------------------|
E|----------------------3--3-3--3-5--5-5--5----------------------------|

e|---------------------------------------------------------------------|
b|---------------------------------------------------------------------|
g|---------------------------------------------------------------------|
d|--4--4-4--4-4--4-4--4------------------------------------------------|
a|--2--2-2--2-2--2-2--2-3--3-3--3-5--5-5--5----------------------------|
E|----------------------1--1-1--1-3--3-3--3----------------------------|

e|--------------------------------------------|
b|--------------------------------------------|
g|--------------------------------------------|
d|--4--4-4--4-4--4-4--4-----------------------|
a|--2--2-2--2-2--2-2--2-5--5-5--5-7--7-7--7---|
E|----------------------3--3-3--3-5--5-5--5---|

e|-------------------------------------------|
b|-------------------------------------------|
g|-------------------------------------------|
d|--4--4-4--4-4--4-4--4----------------------|
a|--2--2-2--2-2--2-2--2-3----------5---------|
E|----------------------1----------3---------|

Outro
(distortion)
e|---------------------------------------------------------------------|
b|---------------------------------------------------------------------|
g|---------------------------------------------------------------------|
d|------------------2-----------------------------02020202-------------|
a|--2--4--5--4--5-4----5--4-5-4-0-2--0--2--0--2-0---------45454545-----|
E|---------------------------------------------------------------------|

e|---------------------------------------------------------------------|
b|---------------------------------------------------------------------|
g|---------------------------------------------------------------------|
d|------------------4--2---------------------------02020202------------|
a|--2--4--5--4--5-4-------5--4-5-0-2--0--2--0--2-0---------45454545--2-|
E|---------------------------------------------------------------------|





Comments


Popular 3 Doors Down tabs & chords
Back To Me Chords
Better Life 2 Tabs
I Feel You (Intro) Tabs
Its Not My Time 2 Tabs
Kryptonite 4 Tabs
Landing In London Tabs
Never Will I Break Tabs
Not Enough Tabs
Round And Round Tabs
Loser Ukulele


Song lyrics



↑ Back to top | Tablatures and chords are parodies/interpretations of the original songs. You may use it for private study, scholarship, research or language learning purposes only
© 2014 AZChords.com Contact us | Privacy policy | DMCA | Add/correct tabs | Request tabs | Top 50 tabs