>
 >
Here By Me

Here By Me Guitar Tabs

3 Doors Down - Here By Me chords, tabs, tablatures, lyrics

Guitar lessons | Add/correct | Request | Top 50 tabs Artists:  A B C D E F G H I J K L M N O P Q R S T U V W X Y Z 0-9

Here By Me Guitar Tabs – 3 Doors Down

CD, Sheet music, Poster

Do you like Here By Me? Share with your friends now
ChordsChords v2TabsTabs v2Ukulele
-------------------------------------------------------------------------------
-------------------------------------------------------------------------------

Tuning: EADGBe

This is a sweet song by 3 Doors Down and pretty easy to play once you get the
hang of it.  This is just the main acoustic guitar played finger style.

UPDATE: Fixed parts thanks to input from cdawg3731 and the harmonic sections.

Intro
e|-----------------------------------------------------------------|
B|-0-----0---------0-----0---------0-----0---------0-----0---------|
G|---0-------0-------0-------0-------0-------0-------0-------0-----|
D|-----0-------0-------2-------2-------0-------0-------2-------2---|
A|---------------0-3-------------0---------------0-3-------------0-|
E|-3-------------------------------3-------------------------------|

Verse 1
e|-----------------------------------------------------------------|
B|-0-----0---------0-----0---------0-----0---------0-----0---------|
G|---0-------0-------0-------0-------0-------0-------0-------0-----|
D|-----0-------0-------2-------2-------0-------0-------2-------2---|
A|---------------0-3-------------0---------------0-3-------------0-|
E|-3-------------------------------3-------------------------------|

e|-----------------------------------------------------------------|
B|-0-----0h1-------0-----0h1-------0-----0h1-------0-----0h1-------|
G|---2-------2-------2-------2-------0-------0-------0-------0-----|
D|-----2-------2-------2-------2-------2-------2-------2-------2---|
A|-0-------------0-0-------------0-3-------------3-3-------------3-|
E|-----------------------------------------------------------------|

e|-----------------------------------------------------------------|
B|-0-----0---------0-----0---------0-----0---------0-----0---------|
G|---0-------0-------0-------0-------0-------0-------0-------0-----|
D|-----0-------0-------2-------2-------0-------0-------2-------2---|
A|---------------0-3-------------0---------------0-3-------------0-|
E|-3-------------------------------3-------------------------------|

e|-----------------------------------------------------------------|
B|-0-----0h1-------0-----0h1-------0-----0h1-------0-----0h1-------|
G|---2-------2-------2-------2-------0-------0-------0-------0-----|
D|-----2-------2-------2-------2-------2-------2-------2-------2---|
A|-0-------------0-0-------------0-3-------------3-3-------------3-|
E|-----------------------------------------------------------------|

Pre-Chorus
e|-----------------------------------------------------------------|
B|-0-----0h1-------0-----0h1-------0-----0h1-------0-----0h1-------|
G|---2-------2-------2-------2-------0-------0-------0-------0-----|
D|-----2-------2-------2-------2-------2-------2-------2-------2---|
A|-0-------------0-0-------------0-3-------------3-3-------------3-|
E|-----------------------------------------------------------------|

e|-----------------------------------------------------------------|
B|-0-----0h1-------0-----0h1-------0-----0h1-------0-----0h1-------|
G|---2-------2-------2-------2-------0-------0-------0-------0-----|
D|-----2-------2-------2-------2-------2-------2-------2-------2---|
A|-0-------------0-0-------------0-3-------------3-3-------------3-|
E|-----------------------------------------------------------------|

Chorus
e|-----------------------------------------------------------------|
B|-0-----0---------3-----3---------1-------0-------0h1-------1-----|
G|---0-------0-------0-------0-------0-------0---------2-------2---|
D|-----0-------0-------0-------0-------2-------0---------2-------2-|
A|---------------0-2-------------0-3-----3-2-----2-0-------0-------|
E|-3---------------------------------------------------------------|

e|--------------------------------------------------------------|
B|-1-------0----------------------1-------0---------------------|
G|---0-------0-----0-2-2-2-----2----0-------0-----0-2-2-2-----2-|
D|-----2-------0-------------3--------2-------0-------------3---|
A|-3-----3-2---------------3------3-----3-2---------------3-----|
E|-----------------3-1-1-1------------------------3-1-1-1-------|

Interlude
e|-----7*------------------------------7*--------------------------|
B|-----------7*------------------------------7*--------------------|
G|--------5*----7*-------------12*--------5*----7*-------------12*-|
D|-----------------7*-------12*--------------------7*-------12*----|
A|--------------------7*-12*--------------------------7*-12*-------|
E|-0-------------------------------0-------------------------------|

Verse 2
e|-----------------------------------------------------------------|
B|-0-----0---------0-----0---------0-----0---------0-----0---------|
G|---0-------0-------0-------0-------0-------0-------0-------0-----|
D|-----0-------0-------2-------2-------0-------0-------2-------2---|
A|---------------0-3-------------0---------------0-3-------------0-|
E|-3-------------------------------3-------------------------------|

e|-----------------------------------------------------------------|
B|-0-----0h1-------0-----0h1-------0-----0h1-------0-----0h1-------|
G|---2-------2-------2-------2-------0-------0-------0-------0-----|
D|-----2-------2-------2-------2-------2-------2-------2-------2---|
A|-0-------------0-0-------------0-3-------------3-3-------------3-|
E|-----------------------------------------------------------------|

e|-----------------------------------------------------------------|
B|-0-----0---------0-----0---------0-----0---------0-----0---------|
G|---0-------0-------0-------0-------0-------0-------0-------0-----|
D|-----0-------0-------2-------2-------0-------0-------2-------2---|
A|---------------0-3-------------0---------------0-3-------------0-|
E|-3-------------------------------3-------------------------------|

e|-----------------------------------------------------------------|
B|-0-----0h1-------0-----0h1-------0-----0h1-------0-----0h1-------|
G|---2-------2-------2-------2-------0-------0-------0-------0-----|
D|-----2-------2-------2-------2-------2-------2-------2-------2---|
A|-0-------------0-0-------------0-3-------------3-3-------------3-|
E|-----------------------------------------------------------------|

Pre-Chorus
e|-----------------------------------------------------------------|
B|-0-----0h1-------0-----0h1-------0-----0h1-------0-----0h1-------|
G|---2-------2-------2-------2-------0-------0-------0-------0-----|
D|-----2-------2-------2-------2-------2-------2-------2-------2---|
A|-0-------------0-0-------------0-3-------------3-3-------------3-|
E|-----------------------------------------------------------------|

e|-----------------------------------------------------------------|
B|-0-----0h1-------0-----0h1-------0-----0h1-------0-----0h1-------|
G|---2-------2-------2-------2-------0-------0-------0-------0-----|
D|-----2-------2-------2-------2-------2-------2-------2-------2---|
A|-0-------------0-0-------------0-3-------------3-3-------------3-|
E|-----------------------------------------------------------------|

Chorus
e|-----------------------------------------------------------------|
B|-0-----0---------3-----3---------1-------0-------0h1-------1-----|
G|---0-------0-------0-------0-------0-------0---------2-------2---|
D|-----0-------0-------0-------0-------2-------0---------2-------2-|
A|---------------0-2-------------0-3-----3-2-----2-0-------0-------|
E|-3---------------------------------------------------------------|

e|--------------------------------------------------------------|
B|-1-------0----------------------1-------0---------------------|
G|---0-------0-----0-2-2-2-----2----0-------0-----0-2-2-2-----2-|
D|-----2-------0-------------3--------2-------0-------------3---|
A|-3-----3-2---------------3------3-----3-2---------------3-----|
E|-----------------3-1-1-1------------------------3-1-1-1-------|

Interlude
e|-----7*------------------------------7*--------------------------|
B|-----------7*------------------------------7*--------------------|
G|--------5*----7*-------------12*--------5*----7*-------------12*-|
D|-----------------7*-------12*--------------------7*-------12*----|
A|--------------------7*-12*--------------------------7*-12*-------|
E|-0-------------------------------0-------------------------------|

Bridge
e|---------------------------------|
B|---------1-1-1-1---------1-1-1-1-|
G|-0-0-0-0-0-0-0-0-0-0-0-0-0-0-0-0-|
D|-2-2-2-2-2-2-2-2-2-2-2-2-2-2-2-2-|
A|-2-2-2-2-3-3-3-3-2-2-2-2-3-3-3-3-|
E|-0-0-0-0---------0-0-0-0---------|

e|---------------------------------|
B|-0-----0h1-------0-----0h3-------|
G|---2-------2-------2-------2-----|
D|-----2-------2-------2-------2---|
A|-0-------------0-0-------------0-|
E|---------------------------------|

e|---------------------------------|
B|---------1-1-1-1---------1-1-1-1-|
G|-0-0-0-0-0-0-0-0-0-0-0-0-0-0-0-0-|
D|-2-2-2-2-2-2-2-2-2-2-2-2-2-2-2-2-|
A|-2-2-2-2-3-3-3-3-2-2-2-2-3-3-3-3-|
E|-0-0-0-0---------0-0-0-0---------|

e|-----------------------------------------------------------------|
B|-0-----0h1-------0-----0h1-------0-----0h1-------0-----0h1-------|
G|---2-------2-------2-------2-------0-------0-------0-------0-----|
D|-----2-------2-------2-------2-------2-------2-------2-------2---|
A|-0-------------0-0-------------0-3-------------3-3-------------3-|
E|-----------------------------------------------------------------|

Chorus/Ending
e|-----------------------------------------------------------------|
B|-0-----0---------3-----3---------1-------0-------0h1-------1-----|
G|---0-------0-------0-------0-------0-------0---------2-------2---|
D|-----0-------0-------0-------0-------2-------0---------2-------2-|
A|---------------0-2-------------0-3-----3-2-----2-0-------0-------|
E|-3---------------------------------------------------------------|

e|--------------------------------------------------------------|
B|-1-------0----------------------1-------0---------------------|
G|---0-------0-----0-2-2-2-----2----0-------0-----0-2-2-2-----2-|
D|-----2-------0-------------3--------2-------0-------------3---|
A|-3-----3-2---------------3------3-----3-2---------------3-----|
E|-----------------3-1-1-1------------------------3-1-1-1-------|

e|-----7*--------------------------|
B|-----------7*--------------------|
G|--------5*----7*-------------12*-|
D|-----------------7*-------12*----|
A|--------------------7*-12*-------|
E|-0-------------------------------|

e|-----------------------------------------------------------------|
B|-0-----0---------3-----3---------1-------0-------0h1-------1-----|
G|---0-------0-------0-------0-------0-------0---------2-------2---|
D|-----0-------0-------0-------0-------2-------0---------2-------2-|
A|---------------0-2-------------0-3-----3-2-----2-0-------0-------|
E|-3---------------------------------------------------------------|

e|----------------------------------------------------------------|
B|-1-------0----------------------1-------0---------------------0-|
G|---0-------0-----0-2-2-2-----2----0-------0-----0-2-2-2-----2---|
D|-----2-------0-------------3--------2-------0-------------3-----|
A|-3-----3-2---------------3------3-----3-2---------------3-------|
E|-----------------3-1-1-1------------------------3-1-1-1-------3-|





Comments


Popular 3 Doors Down tabs & chords
Citizen Soldier 3 Bass Tabs
Kryptonite 5 Bass Tabs
If I Could Be Like That 1 Chords
Let Me Be Myself 2 Chords
Be Like That 5 Tabs
Dangerous Game 2 Tabs
If I Could Be Like That Full Tabs
Let Me Be Myself 2 Tabs
Live For Today Tabs
When Youre Young Tabs


Song lyrics



↑ Back to top | Tablatures and chords are parodies/interpretations of the original songs. You may use it for private study, scholarship, research or language learning purposes only
© 2014 AZChords.com Contact us | Privacy policy | DMCA | Add/correct tabs | Request tabs | Top 50 tabs