» » »

Duck And Run Bass tabs (ver.1)

Artists:  A B C D E F G H I J K L M N O P Q R S T U V W X Y Z # 

Duck And Run Bass tabs (ver.1)

3 Doors Down
Rating:
0/5 (0 votes)

Hard to play? Try these video lessons and learn fast.
                No notes to add... this is pretty straight forward if you've got the song...

enjoy!  B




(Intro)
   W   H. E     S S S S E S E E S E E   S S S S E S E E S Q  (Play a total of 3X)
G|---|------||------------------------|----------------------||
D|-R-|-R----||.-0-2-2-2-2-------------|-0-2-2-2-2-----------.||
A|---|----2-||.-----------2-3-2-0-2-3-|-----------2-3-2-0-2-.||
E|---|------||------------------------|----------------------||



(Verse)
     S S S S E S E E S E E   S S S S E S E E S S S S S  (Play a total of 6X)
G||------------------------|----------------------------||
D||.-0-2-2-2-2-------------|-0-2-2-2-2-----------------.||
A||.-----------2-3-2-0-2-3-|-----------2-3-2-0-2-3-2-0-.||
E||------------------------|----------------------------||


(Chorus)
   Q E. E E E. E   Q E. E E E. E   Q E. E E E. E   Q E. E E E. E
G|------0-0------|---------------|---------------|---------------|
D|-2-2------4--2-|-------------0-|---------------|-------------0-|
A|---------------|-3-3--2-2-3----|---------------|-3-3--2-2-3----|
E|---------------|---------------|-0-0--3-3-2--0-|---------------|


								      - 3 - 
   E. E. E. E. E E   E. E. E. E. S S S S   E. E. E. E. E E   E. E. E  E E E Q
G|-----------------|---------------------|-----------------|------------------|
D|-2---------------|-2-------------------|-2---------------|-2----------------|
A|----2--3--0--2-3-|----2--3--0--2-3-2-0-|----2--3--0--2-3-|----2--3--3-3-3-3-|
E|-----------------|---------------------|-----------------|------------------|



(Verse)
     S S S S E S E E S E E   S S S S E S E E S S S S S  (Play a total of 4X)
G||------------------------|----------------------------||
D||.-0-2-2-2-2-------------|-0-2-2-2-2-----------------.||
A||.-----------2-3-2-0-2-3-|-----------2-3-2-0-2-3-2-0-.||
E||------------------------|----------------------------||



(Chorus)
     Q E. E E E. E   Q E. E E E. E   Q E. E E E. E   Q E. E E E. E  (Play a total of 2X)
G||-------0-0------|---------------|---------------|----------------||
D||.-2-2------4--2-|-------------0-|---------------|-------------0-.||
A||.---------------|-3-3--2-2-3----|---------------|-3-3--2-2-3----.||
E||----------------|---------------|-0-0--3-3-2--0-|----------------||



(Bridge)
     E. E. E. E. E E   E. E. E. E. E E   E. E. E. E. E E   E. E. E. E. S S S S  (Play a total of 2X)
G||------------------|-0-----2--2--2-2-|-----------------|----------------------||
D||.-2-----2-----2---|----4------------|-2-----2-----2---|---------------------.||
A||.----2-----2----2-|-----------------|----2-----2----2-|-3--2--0--2--2-3-2-0-.||
E||------------------|-----------------|-----------------|----------------------||



(Guitar Solo)
     S S S S E S E E S E E   S S S S E S E E S Q  (Play a total of 4X)
G||------------------------|----------------------||
D||.-0-2-2-2-2-------------|-0-2-2-2-2-----------.||
A||.-----------2-3-2-0-2-3-|-----------2-3-2-0-2-.||
E||------------------------|----------------------||




     S S S S E S E E S E E   S S S S E S E E S S S S S  (Play a total of 2X)
G||------------------------|----------------------------||
D||.-0-2-2-2-2-------------|-0-2-2-2-2-----------------.||
A||.-----------2-3-2-0-2-3-|-----------2-3-2-0-2-3-2-0-.||
E||------------------------|----------------------------||




     Q E. E E E. E   Q E. E E E. E   Q E. E E E. E   Q E. E E E. E  (Play a total of 4X)
G||-------0-0------|---------------|---------------|----------------||
D||.-2-2------4--2-|-------------0-|---------------|-------------0-.||
A||.---------------|-3-3--2-2-3----|---------------|-3-3--2-2-3----.||
E||----------------|---------------|-0-0--3-3-2--0-|----------------||




   E. E. E. E. E E   E. E. E. E. S S S S   E. E. E. E. E E   E. E. H(or whatever)
G|-----------------|---------------------|-----------------|---------|
D|-2---------------|-2-------------------|-2---------------|-2-------|
A|----2--3--0--2-3-|----2--3--0--2-3-2-0-|----2--3--0--2-3-|----2--3-|
E|-----------------|---------------------|-----------------|---------|
            
Hard to play? Try these video lessons and learn fast. | Correct




comments powered by Disqus
↑ Back to top | Tablatures and chords are parodies/interpretations of the original songs. You may use it for private study, scholarship, research or language learning purposes only