» » »

3 Doors Down, Down Poison Chords (ver.2)

Artists:  A B C D E F G H I J K L M N O P Q R S T U V W X Y Z # 

Down Poison Chords (ver.2)

3 Doors Down Tabs
 Rating:
4/5 (4 votes)
Down Poison lessons Tabs too difficult? Try these video lessons and learn fast
                3 doors down, down poison.
  

This is a revision of my original version, which didn't have the solo and had 
lyrics written incorrectly.

It's not too hard.  Pretty easy, really, but a lot of fun to play.

All Power Chords, I think

Use Distortion

Intro:
                                                                        
A  C  A  E       G     x2

A  C  A  E                                                              x1
0
Verse 1:
1x with no words  2x "I dreamed about this..."

G  C  B  G  E                           x2

G  C  B  G        x1

Pre-Chorus:
"Welcome to my world..."

E  G  C  B  E     x4

Chorus:
"Down Poison"

C  A  B  E  C  A  B (hold)

Verse 2:

E  G  C  B

Pre-Chorus:
"Welcome to my world"   

 E  G  C  B  E     x4

Chorus:
"Down Poison"

C  A  B  E                                              x2

C  A  B            x1

Solo:

e-----0--0---0---0-0----0------17-15----19-17-15--------------
B------------------------------------17----------17-----------
G-------------------------------------------------------------
D-------------------------------------------------------------
A-------------------------------------------------------------
E-------------------------------------------------------------

e-------------------------------------------------------------
B-------------------------------------------------------------
G-------------------------------------------------------------
D-------------------------------------------------------------
A-------------------------------------------------------------
E---14b(15)r14----12b(13)r12---12-12--14-14--15-15------------

e-------------------------------------------------------------
B-------------------------------------------------------------
G-------------------------------------------------------------
D-------------------------------------------------------------
A--12--12--14b(15)r14----14b(15)r14--12---2-------------------
E---------------------------------------------5---3-0---------

e--0--0/12--15--12--12--15-14-13-12-11-10-9-8-7-6-5-4-3-2-1-0-
B-------------------------------------------------------------
G-------------------------------------------------------------
D-------------------------------------------------------------
A-------------------------------------------------------------
E-------------------------------------------------------------

On the last run.  Just hit the first note (e 16) then slide down
making sure every note sounds.  That's the only way I could see
this solo being done.  Email me if you have seen a video of the
solo and can correct me.  I am not sure, but I think that this 
could also be a tap solo.  
This is my best guess.

Guitar 2 (During Solo):

Repeat throughout solo

e---------------------
B---------------------
G---------------------
D---2--2---5--7--9----
A---2--2---5--7--9----
E---0--0---3--5--7----

Bass (During Solo):

G---------------------
D---------------------
A---------------------
E---0--0---3--5--7----

Chorus:
"Down Poison"

C  A  B  E                                                                      x7

C  A  B            x1

Pre-Chorus:
"Welcome to my world"

G  C  B  G  E                           x3

G  C  B  G        x1

Chorus:
"Down Poison"

C  A  B  E                                                                      x3

C  A  B            x1

Outro:

E power chord (Might just be the 1 and 5 and not the higher
octave 02xxxx, I can't quite tell).

rhythm:
s-E-s-s-s-s-E-s-s-s-s-s-s-s-s    x3

s = sixteenth note
e = eighth note


 
            
Submit corrections

comments powered by Disqus
↑ Back to top | 3 Doors Down Chords for Down Poison. Lyrics for acoustic guitar and electric guitar. Tablatures and chords are parodies/interpretations of the original songs. You may use it for private study, scholarship, research or language learning purposes only