» » »

36 Crazy Fists, Turn To Ashes Tabs (ver.4)

Artists:  A B C D E F G H I J K L M N O P Q R S T U V W X Y Z # 

Turn To Ashes Tabs (ver.4)

36 Crazy Fists Tabs
Rating:
0/5 (0 votes)
Turn To Ashes lessons Tabs too difficult? Try these video lessons and learn fast
                36 Crazyfist's - Turn To Ashes 
Tuning - C G C F A D

d-------------------------------------------
a-------------------------------------------
f-------------------------------------------   intro   x 4 times
c-------------------------------------------  
g-------------3-----------------------------
c-0-0-3-1-0-1---1---------------------------


d-------------------------------------------
a-------------------------------------------
f-------------*3*---------------------------  riff
c-0-0-3-1-0-1-*3*-1------------------------
g-0-0-3-1-0-1-*3*-1------------------------
c-0-0-3-1-0-1-----1------------------------

d-------------------------------------------
a-------------------------------------------
f--8>------7>-------------8>------7>----3>--  verse (tremelo picking)
c-------------------------------------------
g-------------------------------------------
c-------------------------------------------
I'm not sick ... I'm just a boy ...

Pre-Chorus

d-----------------------------------------------------
a-----------------------------------------------------
f-----------------------------------------------------
c-0-0-0---0-0-0-----3-1-0-1-----0-0-0---0-0-0-----7h8- pre-chorus
g-0-0-0---0-0-0-----3-1-0-1-----0-0-0---0-0-0-----7h8-
c-0-0-0---0-0-0-----3-1-0-1-----0-0-0---0-0-0-----7h8-
                      PM . . .     
 
d-----------------------------------------------------
a-----------------------------------------------------
f-----------------------------------------------------
c-0-0-0---0-0-0-----3-1-0-1-----0-0-0---0-0-0-----3h1- pre-chorus
g-0-0-0---0-0-0-----3-1-0-1-----0-0-0---0-0-0-----3h1-
c-0-0-0---0-0-0-----3-1-0-1-----0-0-0---0-0-0-----3h1-
                      PM . . .     


d-------------------------------------------------
a-------------------------------------------------
f-------------------------------------------------
c-0-------7--------3--------8---------------------  chorus (GTR1)
g-0-------7--------3--------8---------------------
c-0-------7--------3--------8--------0-0-0--0-0-0-

d------------------------------------------------------
a------------------------------------------------------
f-7-7-7-7---7/9-9-9-9---9/10-10-10-10---10/14-14-14-14-  chorus (GTR2)
c------------------------------------------------------
g-5-5-5-5---5/7-7-7-7---7/-8--8--8--8----8/12-12-12-12-
c------------------------------------------------------
I don't know how much you thought I'd be 

d---------------------------------------------------
a---------------------------------------------------
f-7-7-7-7---7/9-9-9-9---9/10-10-10-10---10/7-7-6-6--
c---------------------------------------------------   chorus contd...
g-5-5-5-5---5/7-7-7-7---7/-8--8--8--8----8/5-5-4-4--
c---------------------------------------------------
It turns to ashes on me 

Intro again
d-------------------------------------------
a-------------------------------------------
f-------------*3*---------------------------  riff
c-0-0-3-1-0-1-*3*-1-------------------------
g-0-0-3-1-0-1-*3*-1-------------------------
c-0-0-3-1-0-1-----1-------------------------

Verse
d-------------------------------------------
a-------------------------------------------
f--8>------7>-------------8>------7>----3>--  verse
c-------------------------------------------
g-------------------------------------------
c-------------------------------------------

d-------------------------------------------
a-------------------------------------------
f-------------*3*---------------------------  riff
c-0-0-3-1-0-1-*3*-1-------------------------
g-0-0-3-1-0-1-*3*-1-------------------------
c-0-0-3-1-0-1-----1-------------------------

d-------------------------------------------------
a-------------------------------------------------
f-------------------------------------------------
c-0-------7--------3--------8---------------------  chorus (GTR1)
g-0-------7--------3--------8---------------------
c-0-------7--------3--------8--------0-0-0--0-0-0-

d------------------------------------------------------
a------------------------------------------------------
f-7-7-7-7---7/9-9-9-9---9/10-10-10-10---10/14-14-14-14-  chorus (GTR2)
c------------------------------------------------------
g-5-5-5-5---5/7-7-7-7---7/-8--8--8--8----8/12-12-12-12-
c------------------------------------------------------
I don't know how much you thought I'd be 

d---------------------------------------------------
a---------------------------------------------------
f-7-7-7-7---7/9-9-9-9---9/10-10-10-10---10/7-7-6-6--
c---------------------------------------------------   chorus contd (GTR2)
g-5-5-5-5---5/7-7-7-7---7/-8--8--8--8----8/5-5-4-4--
c---------------------------------------------------

S-O-L-O (main riff played underneath)

Played with an effect

d--10----------------13----11---8-------
a---------------------------------------
f---------------------------------------
c---------------------------------------
g---------------------------------------
c---------------------------------------

d--10----------------13----11---13------
a---------------------------------------
f---------------------------------------
c---------------------------------------
g---------------------------------------
c---------------------------------------

d--10----------------13----11---8--------
a---------------------------------------
f---------------------------------------
c---------------------------------------
g---------------------------------------
c---------------------------------------

d--10----------------13----15----17~-----
a---------------------------------------- 
f----------------------------------------
c----------------------------------------
g----------------------------------------
c----------------------------------------

d-------------------------------------------------
a-------------------------------------------------
f-------------------------------------------------
c-0-------7--------3--------8---------------------  chorus (GTR1)
g-0-------7--------3--------8---------------------
c-0-------7--------3--------8--------0-0-0--0-0-0-

d------------------------------------------------------
a------------------------------------------------------
f-7-7-7-7---7/9-9-9-9---9/10-10-10-10---10/14-14-14-14-  chorus (GTR2)
c------------------------------------------------------
g-5-5-5-5---5/7-7-7-7---7/-8--8--8--8----8/12-12-12-12-
c------------------------------------------------------

d---------------------------------------------------
a---------------------------------------------------
f-7-7-7-7---7/9-9-9-9---9/10-10-10-10---10/7-7-6-6--
c---------------------------------------------------   chorus contd...
g-5-5-5-5---5/7-7-7-7---7/-8--8--8--8----8/5-5-4-4--
c---------------------------------------------------
It turns to ashes on me 

then guitar only...
d-------------------------------------------
a-------------------------------------------
f-------------------------------------------   x 4 times
c-------------------------------------------  
g-------------3-----------------------------
c-0-0-3-1-0-1---1---------------------------

then whole band comes in again

d-------------------------------------------
a-------------------------------------------
f-------------*3*---------------------------  riff
c-0-0-3-1-0-1-*3*-1-------------------------
g-0-0-3-1-0-1-*3*-1-------------------------
c-0-0-3-1-0-1-----1-------------------------

then end on
d-------------------------------------------
a-------------------------------------------
f-------------------------------------------  riff
c-0-----------------------------------------
g-0-----------------------------------------
c-0-----------------------------------------
            
Submit corrections

comments powered by Disqus
↑ Back to top | 36 Crazy Fists Tabs for Turn To Ashes. Lyrics for acoustic guitar and electric guitar. Tablatures and chords are parodies/interpretations of the original songs. You may use it for private study, scholarship, research or language learning purposes only