» » »

36 Crazy Fists, Turn To Ashes Tabs (ver.3)

Artists:  A B C D E F G H I J K L M N O P Q R S T U V W X Y Z # 

Turn To Ashes Tabs (ver.3)

36 Crazy Fists Tabs
Rating:
0/5 (0 votes)
Turn To Ashes lessons Tabs too difficult? Try these video lessons and learn fast
                Riff 1
D|-------------------------------------|
A|-------------------------------------|
F|-------------------------------------|      
C|-------------------------------------|       Repeat 4 times
G|------1------------------------------|
C|013101-1-----------------------------|

Riff 2
D|--Repeat 4 times --------------------|
A|-----------then----------------------|
F|-------------------------------------|      
C|013101-0--------01-1-----------------|       
G|01310110--------01-1-----------------|
C|013101-0--------01-1-----------------|

Pre chorus
D|---------------------------------------------------------|
A|---------------------------------------------------------|
F|--------------3------------------------------------------|  Repeat a few times    
C|0131013111000-3------------------------------------------|       
G|0131013111000-1------------------------------------------|
C|0131013111000--------------------------------------------|

Chorus
D|-------------------------------------|
A|-------------------------------------|
F|444---------33-33--------------------|      
C|444-777-333-33-33--------------------|       
G|555-777-333-11-11--------------------|
C|----777-333--------------------------|

Thats about it theres a few bits with the second guitar that i havent figured out yet and theres a bit that shouldnt be to hard for u to figure out thanks.
            

comments powered by Disqus
↑ Back to top | 36 Crazy Fists Tabs for Turn To Ashes. Lyrics for acoustic guitar and electric guitar. Tablatures and chords are parodies/interpretations of the original songs. You may use it for private study, scholarship, research or language learning purposes only