» » »

36 Crazy Fists, Turn To Ashes Tabs (ver.1)

Artists:  A B C D E F G H I J K L M N O P Q R S T U V W X Y Z # 

Turn To Ashes Tabs (ver.1)

36 Crazy Fists Tabs
 Rating:
4/5 (4 votes)
Turn To Ashes lessons Tabs too difficult? Try these video lessons and learn fast
                

drop 1 whole step and drop the 6th string to C (C-G-C-F-A-D)



Intro (this part is a bit faster than the rest of the song)

if you have an equalizer on your distortion pedal, turn the
Bass all the way down when you play this. it's barrels of fun
to play, tee hee.

D-------------------------------------------
A-------------------------------------------
F-------------------------------------------
C-------------------------------------------
G-------------3-----------------------------
C-0-0-3-1-0-1---1---------------------------



Intro-continued (this is when the entire band kicks in)

*3* = harmonic on 3rd fret


sometimes a few breaks and variations are thrown in which
you can easily figure out on your own. this is the main riff.

D-------------------------------------------
A-------------------------------------------
F-------------*3*---------------------------
C-0-0-3-1-0-1-*3*-1-------------------------
G-0-0-3-1-0-1-*3*-1-------------------------
C-0-0-3-1-0-1-----1-------------------------


Verse

this is played with an effect

D-------------------------------------------
A-------------------------------------------
F--8-------7-------------8------7----3------
C-------------------------------------------
G-------------------------------------------
C-------------------------------------------
I'm not sick ... I'm just a boy ...



Pre-Chorus

D-----------------------------------------------------
A-----------------------------------------------------
F-----------------------------------------------------
C-0-0-0---0-0-0-----3-1-0-1-----0-0-0---0-0-0-----7h8-
G-0-0-0---0-0-0-----3-1-0-1-----0-0-0---0-0-0-----7h8-
C-0-0-0---0-0-0-----3-1-0-1-----0-0-0---0-0-0-----7h8-
  d u d   u d u    PM . . .     d u d   u d u
 
Is    this     all     the     world



D-----------------------------------------------------
A-----------------------------------------------------
F-----------------------------------------------------
C-0-0-0---0-0-0-----3-1-0-1-----0-0-0---0-0-0-----3h1-
G-0-0-0---0-0-0-----3-1-0-1-----0-0-0---0-0-0-----3h1-
C-0-0-0---0-0-0-----3-1-0-1-----0-0-0---0-0-0-----3h1-
  d u d   u d u    PM . . .     d u d   u d u

         has      to        offer?


\\\\ you don't HAVE to play the triplets Down-Up-Down and Up-Down-Up. //////
       you can play them Down-Up-Down on both of them. play however
	you feel more comfortable. listen to the song for the timing. 


Chorus 

Guitar A

D-------------------------------------------------
A-------------------------------------------------
F-------------------------------------------------
C-0-------7--------3--------8---------------------
G-0-------7--------3--------8---------------------
C-0-------7--------3--------8--------0-0-0--0-0-0-
I don't know how much you thought I'd be . . .
(It turns to ashes on me)




Chorus

Guitar B (listen to the song closely for the timing)

D------------------------------------------------------
A------------------------------------------------------
F-7-7-7-7---7/9-9-9-9---9/10-10-10-10---10/14-14-14-14-
C------------------------------------------------------
G-5-5-5-5---5/7-7-7-7---7/-8--8--8--8----8/12-12-12-12-
C------------------------------------------------------
I don't know how much you thought I'd be 


D---------------------------------------------------
A---------------------------------------------------
F-7-7-7-7---7/9-9-9-9---9/10-10-10-10---10/7-7-6-6--
C---------------------------------------------------
G-5-5-5-5---5/7-7-7-7---7/-8--8--8--8----8/5-5-4-4--
C---------------------------------------------------
It turns to ashes on me 



Solo

played with an effect

D--10----------------13----11-----------
A-------------------------------10------
F---------------------------------------
C---------------------------------------
G---------------------------------------
C---------------------------------------

D--10----------------13----11---13------
A---------------------------------------
F---------------------------------------
C---------------------------------------
G---------------------------------------
C---------------------------------------

D--10----------------13----11-----------
A-------------------------------10------
F---------------------------------------
C---------------------------------------
G---------------------------------------
C---------------------------------------

D--10----------------13----15----17~--(hold on to this last note
A-------------------------------------- for a few seconds into the chorus)
F----------------------------------------
C----------------------------------------
G----------------------------------------
C----------------------------------------


Voila! there you have it. figure out the order on your own you lazy bums.

my other 36 CF tabs:
-One More Word
-Slit Wrist Theory
-Eightminutesupsidedown
-An Agreement Called Forever
            
Submit corrections

comments powered by Disqus
↑ Back to top | 36 Crazy Fists Tabs for Turn To Ashes. Lyrics for acoustic guitar and electric guitar. Tablatures and chords are parodies/interpretations of the original songs. You may use it for private study, scholarship, research or language learning purposes only