» » »

Turn To Ashes Bass tabs (ver.2)

Artists:  A B C D E F G H I J K L M N O P Q R S T U V W X Y Z # 

Turn To Ashes Bass tabs (ver.2)

36 Crazy Fists
Rating:
0/5 (0 votes)

Hard to play? Try these video lessons and learn fast.
                36 Crazyfists
Turns To Ashes 
Bitterness The Star

Tuning C G C F

Intro: x8 (don’t play the note in the brackets on the 4th and 8th bar)

F|-------------------------------------------|      
C|-------------------------------------------|        
G|-----------1-------------------------------|
C|0—1-3-1-0-1(1)-----------------------------|


Verse: x1

|-----------------------------------------------------------
|-----------------------------------------------------------
|----------------------------------------------------1-1-1--
|0-0h1--------0-0h1--------0-0h1-0-1-3-1-0-1-3-1-1-1------—-

--------------------1-1-1----------------------1-1-1---------------------1-1-1-|
0-1-3-1-0-1-3-1-1-1------—-0-1-3-1-0-1-3-1-1-1-------0-1-3-1-0-1-3-1-1-1-------|



Pre chorus: x4
 
F|--------------------------------------------|  
C|--------------------------------------------|       
G|-----------------------1-1------------------|
C|0-1-3-1-0-1-3-1-1-1-0-0---------------------|


Chorus: x4
 
F|----------------------------------------------------|      
C|----------------------------------------------------|       
G|5-5~----------------------1-1-----------------------|
C|--------7~------3~------1-----1---------------------|

Intro: x4

2nd Verse:

|-------------------------------------------------------------------------------
|-------------------------------------------------------------------------------
|--------------------1-1-1----------------------1-1-1---------------------1-1-1-
|0-1-3-1-0-1-3-1-1-1------—-0-1-3-1-0-1-3-1-1-1-------0-1-3-1-0-1-3-1-1-1-------

--------------.-.-.-------------------------------------------------------------
--------------1-1-1-----------------------------1-1-1---------------------1-1-1-
0-1-3-1-0-1-3-------1/3h5\--0-1-3-1-0-1-3-1-1-1-------0-1-3-1-0-1-3-1-1-1-------


---------------------------------------------------------|
---------------------------------------------------------|
-----------------------1-1-1-----------------------1-1-1-|
--0-1-3-1-0-1-3-1-1-1--------0-1-3-1-0-1-3-1-1-1---------|

Pre-chorus: x4

Chorus: x4

Intro: x4

Chorus: x4

Intro: x20

Outro: x1

|-----|
|-----|
|-----|
|-0~--|
            
Hard to play? Try these video lessons and learn fast. | Correct




comments powered by Disqus
↑ Back to top | Tablatures and chords are parodies/interpretations of the original songs. You may use it for private study, scholarship, research or language learning purposes only