>
 >
Turns To Ashes 1

Turns To Ashes 1 Guitar Tabs

36 Crazy Fists - Turns To Ashes 1 chords, tabs, tablatures, lyrics

Guitar lessons | Add/correct | Request | Top 50 tabs Artists:  A B C D E F G H I J K L M N O P Q R S T U V W X Y Z 0-9

Turns To Ashes 1 Guitar Tabs – 36 Crazy Fists

CD, Sheet music, Poster

Do you like Turns To Ashes 1? Share with your friends now
Bass TabsBass Tabs v2TabsTabs v2Tabs v3

I know this isn't 100% correct but I did the best I could. This is my best interpretation.
If I change anything I'll post an updated version and note the corrections. Any questions
or comments can be directed to me by e-mail. Thanks and enjoy!



KEY:
/ : Slide Down
\ : Slide Up
- : palm mute
~ : tremolo
h : hammer-on
p : pull-off
^ : bend
x : dead note

INTRO
D|--------------|
A|--------------|
F|--------------|
C|--------------|
G|----------3^--|
C|--0003100-----|


MAIN RIFF
D|-----------------------------------------------------|
A|-----------------------------------------------------|
F|-----------------------------------------------------|
C|--000-3p1-0-----000-3p1-0-----000-3p1-0-----000-3p1--|
G|--000-3p1-0-3^--000-3p1-0-3^--000-3p1-0-3^--000-3p1--|
C|--000-3p1-0-----000-3p1-0-----000-3p1-0-----000-3p1--| x2

VERSE
D|------------------|
A|------------------|
F|------------------|
C|--------9~~7~~----|
G|--9~~7~~-------8--|
C|------------------| x4

pre-CHORUS
D|-----------------------|-----------------------|
A|-----------------------|-----------------------|
F|-----------------------|-----------------------|
C|--0-0-3-1-00-0--0-0-7--|--0-0-3-1-00-0--0-0-3--|
G|--0-0-3-1-00-0--0-0-7--|--0-0-3-1-00-0--0-0-3--|
C|--0-0-3-1-00-0--0-0-7--|--0-0-3-1-00-0--0-0-3--|
    - - - - -- -  - -       - - - - -- -  - -

CHORUS
D|-----------------------|
A|-----------------------|
F|-----------------------|
C|--0---7---3--/8-8-8-8--|
G|--0---7---3--/8-8-8-8--|
C|--0---7---3--/8-8-8-8--|
                  - - -

BRIDGE 1 (FX = Slight Distortion w/Tremolo)
D|-------------------------------------------------|
A|-------------------------------------------------|
F|-----7-9-5/7----7-9-5/7----7-9-5/7----7-9-5/7/9--|
C|--8-----------8----------8----------8------------|
G|-------------------------------------------------|
C|-------------------------------------------------|

BRIDGE 2
D|-------------|-----------|
A|-------------|-----------|
F|-------------|-----------|
C|-------------|-----------|
G|----------3--|-----------|
C|--0003100----|--0003100--|
    ------- (x3)  ------- (x1)

BRIDGE 3
D|-----------|
A|-----------|
F|-----------|
C|--0003100--|
G|--0003100--|
C|--0003100--|



PATTERN
Intro      (x4)
Main Riff  (x2)
Verse      (x4)
Pre-Chorus (x2)
Chorus     (x2)
Main Riff
Verse      (x4)
Pre-Chorus (x2)
Chorus     (x4)
Bridge 1
Chorus     (x4)
Bridge 2
Bridge 3   (x2)
Main Riff  (x4)

That's all to it. Personally I think you'll find that this tab is fairly close or at 
least sounds good ;). Peace.





Comments


Popular 36 Crazy Fists tabs & chords
Ceramic Bass Tabs
Slit Wrist Theory 2 Bass Tabs
Bloodwork Chords
An Agreement Called Forever Tabs
An Agreement Called Forever 1 Tabs
Bloodwork Tabs
Ceramic Tabs
Left Hand Charity 1 Tabs
The City Below Tabs
Two Months From A Year Tabs


Song lyrics



↑ Back to top | Tablatures and chords are parodies/interpretations of the original songs. You may use it for private study, scholarship, research or language learning purposes only
© 2014 AZChords.com Contact us | Privacy policy | DMCA | Add/correct tabs | Request tabs | Top 50 tabs