» »

/0-9/311-tabs-28.html

»

Uncalm Tabs (ver.3)

Artists:  A B C D E F G H I J K L M N O P Q R S T U V W X Y Z # 

Uncalm Tabs (ver.3)

311
Rating:
0/5 (0 votes)

Hard to play? Try these video lessons and learn fast.
                User name: Eric 69

Intro (lots of reverb and vibrato)
E------------------------------------------------
B------------------------------------------------
G------------------------------------------------
D------------------------------------------------
A-----0-2----2-3-2---2--------0-2---2-3----------
E-2-4-----0--------0---0--2-4-----0-----0-2------

Guitar 2: (palm muted) don't palm mute the last F#5
E------------------------------------------------
B------------------------------------------------
G------------------------------------------------
D------------------4-----------------------------
A-4-4--2-2--2-2--2-2--2--4-4-2-2--2-2--4---------
E-2-2--0-0--0-0--0----0--2-2-0-0--0-0--2---------

Verse
E------------------------------------------------
B------------------------------------------------
G-----------------6-6----------------------------
D-7-7-7-7-7-7-7-7-------7-7-7-7-7-7-7-7--6-6-----
A------------------------------------------------
E------------------------------------------------

then it goes:
E------------------------------------------------
B------------------------------------------------
G------------------------------------------------
D------------------------------------------------
A-----------------4-4----------------------------
E-5-5-5-5-5-5-5-5-------5-5-5-5-5-5-5-5--4-4-----

Chorus
E------------------------------------------------
B------------------------------------------------
G------------------------------------------------
D------------------------------------------------
A-4-4-4-----4-4-4-----4-4-4----------------------
E-------5-4-------5-4-------5-4--4-2-4-5-4-2-4---

Other verse:
E------------------------------------------------
B-----------------5-5----------------------------
G-6-6-6-6-6-6-6-6------6-6-6-6-6-6-6-6--5-5------
D------------------------------------------------
A------------------------------------------------
E------------------------------------------------
            
Hard to play? Try these video lessons and learn fast. | Correct




comments powered by Disqus
↑ Back to top | Tablatures and chords are parodies/interpretations of the original songs. You may use it for private study, scholarship, research or language learning purposes only