» »

/0-9/311-tabs-28.html

»

Uncalm Tabs (ver.2)

Artists:  A B C D E F G H I J K L M N O P Q R S T U V W X Y Z # 

Uncalm Tabs (ver.2)

311
Rating:
0/5 (0 votes)
Tabs too difficult? Try these video lessons and learn fast.
                Here is the tab for Uncalm. I think it's very accurate. If anyone has any transcriptions for guitar 2, send them my way. Thanks.

Standard Tuning

Intro w/ Chorus

E -----------------------------------------------------------------------
B -----------------------------------------------------------------------
G ------------------------------------------------------------------------
A ------------------------------------------------------------------------
D -------------------------------------------------------------------------
E 2--4--5--7--0--7--8--7--0--7--0--2--4--5--7--0--7--8--0--2--

Verse  (Chorus off. Dist. On for remainder of Song)

E ------------------------------------------------------------------------- ----
B ------------------------------------------------------------------------- -----
G ------------------------------------------------------------------------- ------
A --7--7---7--7--7--7--7--11--11----7--7--7--7--7--7--7--6--6------
D ------------------------------------------------------------------------- ------
E  ------------------------------------------------------------------------- -----
    pm............................                    pm............................

E -----------------------------------------------------------------------
B -----------------------------------------------------------------------
G ------------------------------------------------------------------------
A   -------------------------------------------------------------------------
D   --0--0--0--0--0--0--0--4--4--0--0--0--0--0--0--0-----------
E  ------------------------------------------------------4--4-- 
       pm...........................             pm...............................
   
Chorus
-
E ------------------------------------------------------------------------- ---------
B ------------------------------------------------------------------------- ---------
G --6---6---6------2---------4--4--4--4------2------------4--4---4-4----2 ---------
A   6---6---6------2---4-----4--4--4--4------2-----4------4--4--4--4----2-- -----4-
D --4---4---4------0---4-----6--6--6--6------0------4------6--6--6--6----0- ------4--
E  --------------------6----------------------------6---------------- ------------6---------



E -----------------------------------------------------------------------
B -----------------------------------------------------------------------
G ------------------------------------------------------------------------
A   7---4---6--5--6---4-----------------------------------------------
D --7---4---6--5--6---4-----------------------------------------------
E  -5---2---4--7--4---2-----------------------------------------------

That's it. Here is the order of playing. Any corrections, feel free to e-mail me.



INTRO x3
VERSE 1 x4
VERSE 2 x4
CHORUS x6
VERSE 1 x2
VERSE 2 x2
CHORUS x4
INTRO x2


Listen to the CD (Track 11) for the timing. Thanks to misterd0505 for the correction on the song order.
            
Tabs too difficult? Try these video lessons and learn fast.


comments powered by Disqus
↑ Back to top | Tablatures and chords are parodies/interpretations of the original songs. You may use it for private study, scholarship, research or language learning purposes only