>
 >
 >
Six 1

Six 1 Bass Tabs

311 - Six 1 chords, tabs, tablatures, lyrics

Guitar lessons | Add/correct | Request | Top 50 tabs Artists:  A B C D E F G H I J K L M N O P Q R S T U V W X Y Z 0-9

Six 1 Bass Tabs – 311

CD, Sheet music, Poster

Do you like Six 1? Share with your friends now
Bass Tabs
'Six' -- Bass Tab
Performed by 311
Music by:  C. Sexton
Lyrics by:  N. Hexum & D. Martinez
(c) 1994 Allegiance Music/Hydroponic Music BMI
----------


G|------------------------------|
D|------------------------------|
A|------4-5-4--------4-5-4------|
E|--2----------2-3-----------3--|


G|---------------------------------------|
D|--------(0)-(2)-(0)--------------------|
A|--0--4---5---7---5---0-----4--5--4-----|
E|------------------------3-----------3--|


G|------------------------------|
D|------------------------------|
A|------4-5-4--------4-5-4------|
E|--2----------2-3-----------3--|


G|-------------------------------------------------------------|
D|---------------------------------------------------0--0-0-0--|
A|----------------------3--3-3-3-------------------------------|
E|--0-1-0--3--3--1-0-1-----------0-1-0---3--3--1-0-1-----------|

G|------------------------------------------------------|
D|------------------------------------------------------|
A|----------------------3--3-3-3------------------------|
E|--0-1-0--3--3--1-0-1-------------0-1-0--3-3-1---5--3--|

G|------------------------------|
D|------------------------------|
A|------4-5-4--------4-5-4------|
E|--2----------2-3-----------3--|  


G|-------------------------------------------------------------|
D|---------------------------------------------------0--0-0-0--|
A|----------------------3--3-3-3-------------------------------|
E|--0-1-0--3--3--1-0-1-----------0-1-0---3--3--1-0-1-----------|

G|--------------------------------|
D|--------------------------------|
A|----------------------3--3-3-3--|
E|--0-1-0--3--3--1-0-1------------|

G|------------------------------------------|
D|------------------------------------------|
A|-------------------------------------0-2--|
E|--0-1-0--3-3-1---3--1--0--0--0---0-2------|

G|----------------------------------------------|
D|----------------------------------------------|
A|-----------3-3-3-------------------------0-2--|
E|--0--0--0--------2-2-3-2---0--0--0---0-2------|

G|--------------------------------------(0)-----------------|
D|---------------------------------------5-(0)-(2)-------0--|
A|-----------3-2-----3-2--------------------5---7-(2)-------|
E|--0--0--0------3-1-----3---0--0--0---0-----------7--3-----| 

G|-------------------------------------------|
D|-------------------------------------------|
A|-----------(2)(2)(0)(0)--------------------|
E|--0--0--0---7--7--5--5--3--3-3-2--0--0--0--|

G|--------------------------------------------------------------|
D|--5-4-3-2-1-0------------------------------------------0-1-2--|
A|--------------4-3-2-1-0----------------------0-1-2-3-4--------|
E|------------------------4-3-2-1--0--1-2-3-4-------------------|

G|-----------------------------------|
D|-----------------------------------|
A|-----------3-3-3-------------------|
E|--0--0--0--------2-2-3-2----2-3-2--|

                
G|------------------------------|
D|------------------------------|
A|------4-5-4--------4-5-4------|
E|--2----------2-3-----------3--|

11112211

                                  (*4)
G|--------------------------------------|
D|--------(0)-(2)-(0)--------------(2)--|
A|--0--4---5---7---5---0-----4--5---7---|
E|------------------------3-------------|
                                  (*2) 
G|------------------------------------|
D|--------(0)-(2)-(0)-----------------|
A|--0--4---5---7---5---0-----4--5--4--|
E|------------------------3-----------|

G|--------------------------------------|
D|--------(0)-(2)-(0)--------------(2)--|
A|--0--4---5---7---5---0-----4--5---7---|
E|------------------------3-------------|

G|-------------------------------------------------|
D|--------(0)-(2)-(0)----------(0)-(2)-(0)---------|
A|--0--4---5---7---5---0-----4--5---7---5--4----0--|
E|------------------------3------------------------|


== Last Updated:  May 20, 1997 ==





Comments


Popular 311 tabs & chords
All Mixed Up Bass Tabs
Misdirected Hostility Bass Tabs
Next 1 Bass Tabs
Nutsympton Bass Tabs
Nutsympton 1 Bass Tabs
Do You Right 1 Tabs
I'll Be Here Awhile 1 Tabs
Rock 100 Tabs
The Continuous Life Tabs
Wake Your Mind Up 1 Tabs


Song lyrics



↑ Back to top | Tablatures and chords are parodies/interpretations of the original songs. You may use it for private study, scholarship, research or language learning purposes only
© 2014 AZChords.com Contact us | Privacy policy | DMCA | Add/correct tabs | Request tabs | Top 50 tabs