>
 >
 >
Six

Six Guitar Tabs

311 - Six chords, tabs, tablatures, lyrics

Guitar lessons | Add/correct | Request | Top 50 tabs Artists:  A B C D E F G H I J K L M N O P Q R S T U V W X Y Z 0-9

Six Guitar Tabs – 311

CD, Sheet music, Poster

Do you like Six? Share with your friends now
Bass TabsBass Tabs v2Tabs
'Six'
Performed by 311
Music by:  C. Sexton
Lyrics by:  N. Hexum & D. Martinez
(c) 1994 Allegiance Music/Hydroponic Music BMI
---------------


Intro/Riff 1 (w/Octaver):
   N.C.
1:----------------------
2:----------------------
3:----------------------
4:----------------------
5:---4-5-4------4-5-4---
6:-2--------2-3-------3-

Riff 2 (w/Octaver):
   N.C.
1:--------------------------
2:--------------------------
3:--------------------------
4:--------------------------
5:---4-5-7-5-4----4-5-4-----
6:-5------------3--------3--

Riff 3 (w/Octaver):
   N.C.        G5
1:--------------------------
2:--------------------------
3:--------------------------
4:-------------5-5-5--5-5-5-
5:---4-5-4-----5-5-5--5-5-5-
6:-2--------2--3-3-3--3-3-3-
              |            |
               Octaver off

Chorus - A:
   C      F         C      G
1:-3-3-3---8--8--8--3-3-3--3-3-3-
2:-5-5-5--10-10-10--5-5-5--3-3-3-
3:-5-5-5--10-10-10--5-5-5--4-4-4-
4:-------------------------------
5:-------------------------------
6:-------------------------------

Chorus - B:
   A5  G5
1:-------
2:-------
3:-------
4:-7---5-
5:-7---5-
6:-5---3-

Bridge (w/Reverb):
   G5  F5  E5     N.C.       E5     N.C
1:------------------------------------------------------
2:------------------------------------------------------
3:------------------------------------------------------
4:-5---3---2-2-2-------------2-2-2----------------------
5:-5---3---2-2-2--------2-2--2-2-2--3-3-3---------------
6:-3---1---0-0-0--0h2h3------0-0-0--------2-2-3-2h3p2h3-

   E5     N.C.       E5     N.C.
1:----------------------------------------
2:----------------------------------------
3:----------------------------------------
4:-2-2-2-------------2-2-2--3-2-----3-2---
5:-2-2-2--------2-2--2-2-2------3-1-----3-
6:-0-0-0--0h2h3------0-0-0----------------

   E5      N.C.             E5    B5 A5   G5   F#5    F5
1:------------------------------------------------------
2:------------------------------------------------------
3:------------------------------------------------------
4:-2-2-2-----5---2----------2-2-2--9-7--7-5--5-4--4-4-3-
5:-2-2-2-------5---2----5---2-2-2--9-7--7-5--5-4--4-4-3-
6:-0-0-0---3---------3------0-0-0--7-5--5-3--3-2--2-2-1-
                                  |     Reverb Off     |

   E5     N.C.
1:----------------------------------------------------------------------
2:----------------------------------------------------------------------
3:----------------------------------------------------------------------
4:-2-2-2----------------------------------------------------------------
5:-2-2-2----------------------------------------------------------------
6:-0-0-0--15/14/13/12/11/10/9/8/7/6/5/4/3/2/1/0/1/2/3/4/5/6/7/8/9/10/11-
          Octaver on -->

   E5     N.C.
1:-----------------------------------------
2:-----------------------------------------
3:-----------------------------------------
4:-2-2-2-----------------------------------
5:-2-2-2--3-3-3----------------------------
6:-0-0-0--------2-2-3-2h3p2h3--2-3-2h3p2h3-

Riff 4a:
   N.C.
1:-------------------------------------------
2:-------------------------------------------
3:-------------------------------------------
4:-------------------------------------------
5:---4-5-7-5-4---4-5-7-----4-5-7-5-4---4-5-7-
6:-5-----------3---------2-----------3-------

Riff 4b:
   N.C.
1:-------------------------------------------
2:-------------------------------------------
3:-------------------------------------------
4:-------------------------------------------
5:---4-5-7-5-4---4-5-4-----4-5-7-5-4---4-5-4-
6:-5-----------3---------2-----------3-------

Riff 4c:
   N.C.
1:------------------------------------------------
2:------------------------------------------------
3:------------------------------------------------
4:------------------------------------------------
5:---4-5-7-5-4---4-5-7------4-5-7-5-4---4-5-7-5-4-
6:-5-----------3----------2-----------3-----------

Ending:
   A5  N.C.                 E5
1:-------------------------------
2:-------------------------------
3:-------------------------------
4:-7------------------------2--2-
5:-7---12/11/10/9/9/7/6/5---2--2-
6:-5------------------------0--0-


Lyrics/Song Structure:
---> Play Intro (x4)
---> Play Riff 1 over:
   You know patience pushing a dream brings my demons to life
   Songs are vacations our soul salvation will you
   Suspend your disbelief I'd like to be the thief
   That steals that jaded necklace that you're always wearing
---> Play Riff 2 over:
   I'd take that thing and with my knive I'd start pairing so
---> Play Riff 1 over:
   Chop chop piece piece and send it to the raiders of LA
---> Play Riff 2 over:
   There are so many this land of plenty
---> Play Riff 1 over:
   The things we lack straight square within our grasp
---> Play Chorus - A over:
   Ever you do ever you think
   Whether you're brown or you're pink
   I think not thinkings better bout it
   When you stop to think
   The jaded ones will wither
   While the optimistic grow
   I settle that a bet will let a large amount so
---> Play Chorus - B (x1)
---> Play Riff 1 over:
   Indulge me just for a minute imagine no one holdin out
   All trying for peace my brothers down
   Some others down it happens slow
---> Play Riff 3 over:
   Think you should know the direction that the world go peace
---> Play Riff 1 over:
   They number six to make them feel like men
   They one up us cuz we're much to much for them
   OK the method to the mischeifs over there then
   Sike shazam we strike with the lightnin'
---> Play Riff 2 over:
   Through space we move and emit an ill tracer
---> Play Riff 1 over:
   We're set to light your world kid we're your maker
---> Play Riff 2 over:
   Check it our karma plus the avant garder
---> Play Riff 1 over:
   Style of out sect wise to ways comes to wreck
---> Play Chorus - A over:
__/SA: While the masses mill around curse in anguish
  \Nick: Ever you do ever you think whether your black or your pink
__/SA: 311 stompin' em down with the quickness
  \Nick: I think not thinkings better bout it when you stop to think
__/SA: We see all the crews that be comin' around
  \Nick: The jaded ones will wither while the optomistic grow
   SA+Nick: Makin they notes to get the sweet-ass style down
---> Play Bridge
---> Play Riff 1 over:
   Fending off the foes that try to shut us down
   Like the warrior souls we are we never give in
   So what you call is dope, we know will come round
---> Play Riff 3 over:
   Chill in Southern 'Cali y'all that's how we're livin'
---> Play Riff 4a over:
   We spend our lifes learning life is large
   It could never be only the ups and the downs will always come around
---> Play Riff 4b (x1)
---> Play Riff 4c over:
   Like a drive through Estes park you savor the sun
   But when the clouds come make animals
---> Play Ending (x1)





Comments


Popular 311 tabs & chords
Lucky Bass Tabs
Solar Flare Bass Tabs
Don't Stay Home Chords
Dreamland 1 Tabs
Firewater Tabs
First Straw Intro 1 Tabs
Freak Out Tabs
Its Alright 1 Tabs
Seal The Deal 1 Tabs
Time Is Precious Tabs


Song lyrics



↑ Back to top | Tablatures and chords are parodies/interpretations of the original songs. You may use it for private study, scholarship, research or language learning purposes only
© 2014 AZChords.com Contact us | Privacy policy | DMCA | Add/correct tabs | Request tabs | Top 50 tabs