>
 >
 >
Sever

Sever Bass Tabs

311 - Sever chords, tabs, tablatures, lyrics

Guitar lessons | Add/correct | Request | Top 50 tabs Artists:  A B C D E F G H I J K L M N O P Q R S T U V W X Y Z 0-9

Sever Bass Tabs – 311

CD, Sheet music, Poster

Do you like Sever? Share with your friends now
Bass TabsBass Tabs v2Tabs
'Sever'
Performed by 311
Music by: N. Hexum & A. Wills
Lyrics by: N. Hexum & D. Martinez
(c) 1999 Hydroponic Music BMI
----------------------------------------------------------------------------------


chorus:

g-------------------------------------------------------
d-------------------------------------------------------
a-33333333---------------0000000---1-0-1-0-1-0
e---------------0000000-----------------------------

verse1:
g-----------------------
d-----------------------
a-------2-3-2----------
e---3------------00001

verse2:
g--------------------------------
d------2---3----2222----3333
a0003---------1-------
e--------------------------------

bridge thing:
g-----------------------------------------------------------------
d------7--------9-10-9-----12----11-12--------14-15-14-------
a---8-----8-7------------------------------12--------------9-10
e5----------------------------------------------------------------

solo riff:
g-------------------------------
d-------------------------------
a----0-------0-----------------
e-----03------0123

outro riff:
g---------------------
d-------------------
a0--------------
e------0---1----------





Comments


Popular 311 tabs & chords
Amber 2 Bass Tabs
Come Original Bass Tabs
Livin' & Rockin' Bass Tabs
Summer Of Love 1 Bass Tabs
T&P Combo Bass Tabs
I'll Be Here A While 1 Tabs
Juan Bond Tabs
Sometimes Jacks Rule The Realm 1 Tabs
Star Shines Tabs
Tribute Tabs


Song lyrics



↑ Back to top | Tablatures and chords are parodies/interpretations of the original songs. You may use it for private study, scholarship, research or language learning purposes only
© 2014 AZChords.com Contact us | Privacy policy | DMCA | Add/correct tabs | Request tabs | Top 50 tabs