» »

/0-9/311-tabs-28.html

»

311, Sever Tabs (ver.1)

Artists:  A B C D E F G H I J K L M N O P Q R S T U V W X Y Z # 

Sever Tabs (ver.1)

311 Tabs
 Rating:
4/5 (4 votes)
Sever lessons Tabs too difficult? Try these video lessons and learn fast
                'Sever'
Performed by 311
Music by:  N. Hexum & A. Wills
Lyrics by:  N. Hexum & D. Martinez
(c) 1999 Hydroponic Music BMI
---------------


Chorus:

   C5/G         E5/B          A5           Bb5->A5             N.C.
1:----------------------------------------------------------|------
2:----------------------------------------------------------|------
3:-5-5-5-5-5-5--9-9-9-9-9-9----------------3-3---3-3-3---3--|------
4:-5-5-5-5-5-5--9-9-9-9-9-9---7-7-7-7-7-7--3-3-3-3-3-3-3-3--|------
5:-3-3-3-3-3-3--7-7-7-7-7-7---7-7-7-7-7-7--1-1-3-1-1-1-3-1--|------
6:-3-3-3-3-3-3--7-7-7-7-7-7---5-5-5-5-5-5--1-1-1-1-1-1-1-1--|--6-5-
                                                            * Play last time

Verse A:
   G          F           G          F          G          F
1:-------------------------------------------------------------------
2:-----0----------------------0---------------------0----------------
3:----------------2----------------------2---------------------2-----
4:-------5----------3-----------5----------3----------5----------3---
5:---5-----5----3-----3-----5-----5----3-----3----5-----5----3-----3-
6:-3----------1-----------3----------1----------3----------1---------

   E5       F5            E5
1:--------------------|----------------
2:--------------------|----------------
3:--------------------|----------------
4:--------------------|----------------
5:-2-2-2-2--3-3-3-3---|---2-2--2-------
6:-0-0-0-0--1-1-1-1---|---0-0-----3--5-
  |      P.M.      |    |P.M.|
                      * Play last time

Verse B:
   N.C.          E5  Bb5
1:-----------------------
2:-----------------------
3:---------------4-------
4:-----5---3-----2---3---
5:-5-5---5----3------1---
6:-----------------------

Verse C (w/wah and delay):
   D5           C5       N.C.       Bb5
1:-10-10-10-10--8-8-8-8--7-7-7-7--5-6-6-6-6-6-
2:-10-10-10-10--8-8-8-8--8-8-8-8--6-6-6-6-6-6-
3:--------------------------------------------
4:--------------------------------------------
5:--------------------------------------------
6:--------------------------------------------

Fill 1 (w/delay):
   Bb5
1:---------
2:---------
3:---------
4:-8-8-8-8-
5:-8-8-8-8-
6:-6-6-6-6-

Bridge:
   N.C.
1:----------------------------------------------
2:----------------------------------------------
3:----------------------------------------------
4:-----7------9-10-9-//12--11----14-15--14------
5:---8---8-7------------------12-----------9-10-
6:-5--------------------------------------------

Solo Riff:
   A5   E5   G5  A5 E5 F5 F#5 G5
1:------------------------------
2:------------------------------
3:------------------------------
4:-2-------------2--------------
5:-0----2----5---0--2--3---4--5-
6:------0----3------0--1---2--3-

Solo:
   N.C.
1:---------------------------------------------
2:---------------------------------------------
3:---------------------------------------------
4:-//12-11--//14-12--//16-16-12-12-12//14\\10--
5:---------------------------------------------
6:---------------------------------------------

   N.C.
1:----------------------------------------------------
2:------------------12~-------------------12h13p12----
3:-----------//12-9-----12-12h14-12-12-------------14-
4:-10//12-11---------------------------14-------------
5:----------------------------------------------------
6:----------------------------------------------------

   N.C.
1:---------------------------------------------------
2:------------------------------15-13----15-13h15p13-
3:-12-----------12-14//16-16-16-------16-------------
4:----12--12h14--------------------------------------
5:---------------------------------------------------
6:---------------------------------------------------

   N.C.
1:-----------15-15-15-15-16-16-16-16-17\\--17-17-
2:-h15p13h15-------------------------------------
3:-----------------------------------------------
4:-----------------------------------------------
5:-----------------------------------------------
6:-----------------------------------------------

   N.C.
1:-20p19p17-20p19p17-20p19p17-20p19p17-20p19p17-20-20-
2:----------------------------------------------------
3:----------------------------------------------------
4:----------------------------------------------------
5:----------------------------------------------------
6:----------------------------------------------------

   N.C.
1:-20-20-20-20-20-20-20-20-22--22--22--20--19-20-17-19-
2:-----------------------------------------------------
3:-----------------------------------------------------
4:-----------------------------------------------------
5:-----------------------------------------------------
6:-----------------------------------------------------

   N.C.
1:-15-17-13-15-12-12-12h13p12-12-12h13p12h13p12h15p13-
2:----------------------------------------------------
3:----------------------------------------------------
4:----------------------------------------------------
5:----------------------------------------------------
6:----------------------------------------------------

   N.C.
1:-12h15p13p12-----------------------------------------------
2:-------------13h15p13h15p13p12h13p12h13p12h13p12p10--------
3:-----------------------------------------------------12\\\-
4:-----------------------------------------------------------
5:-----------------------------------------------------------
6:-----------------------------------------------------------


Lyrics/Song Structure:
---> Play Chorus over:
Nick:
   Just sever that leash and release
   Your freedom of speech
   You just have to believe
   Your deed will be recieved
   Somehow somewhere
   You won't be repaid with a blank stare
   Let me know if you dare
---> Play Verse A (x1)
---> Play Verse A over:
   There's no one that could cure you like she does
   she does
   No one could leave you so alone
---> Play Verse B over:
SA:
   Here I goes
   My vibe is holy
   My eyes closed
   Either I'm asleep
   Or what I'm thinkin is deep
   Eventually I sigh and kick the sheets
   Try to piece together why I'm here
   Nothing except my own *** eyes and ears
   And then it severs so I listen to my heart
   Always and ever 
   If it's not good it might get better
   If it's not good it might just sever
---> Play Verse C over:
Nick:
   I tell you money there's other honey
   You always show it but you don't know it
   Staring at the door thinking
   About the mess your in
   In your couch sinking deep
   Over the girl that's gone
---> Play Fill 1 (x1)
---> Play Chorus over:
Nick:
   Just sever that leash and release
   Your freedom of speech
   You just have to believe
   Your deed will be recieved
   Somehow somewhere
   You won't be repaid with a blank stare
   Let me know if you dare
---> Play Verse A over:
   Now all you think about her drink about her
   in vain
   But all else feels like you're betraying
---> Play Verse B over:
SA:
   We're wakin it up face up and shakin it up
   We know of an extended field
   This is the deal we're letting and getting 
   The vibes that we want 
   Open up your heart and proceed to feel 
   Now you're inchin up to the summit never plummet 
   Boot your system up 
   And then bail with the middle finger up 
   Why you so abrupt baby don't be corrupt
---> Play Bridge over:
Nick:
   Standing in the club playin the wall
   That they're not her is all
   You think and that is true
   But what else can you do
   Trying to turn back time
   Or just tow the line
   Cuz the space you're in
   Is no place like home
---> Play Solo over Solo Riff
            
Submit corrections

comments powered by Disqus
↑ Back to top | 311 Tabs for Sever. Lyrics for acoustic guitar and electric guitar. Tablatures and chords are parodies/interpretations of the original songs. You may use it for private study, scholarship, research or language learning purposes only