>
 >
 >
Rollin 2

Rollin 2 Bass Tabs

311 - Rollin 2 chords, tabs, tablatures, lyrics

Guitar lessons | Add/correct | Request | Top 50 tabs Artists:  A B C D E F G H I J K L M N O P Q R S T U V W X Y Z 0-9

Rollin 2 Bass Tabs – 311

CD, Sheet music, Poster

Do you like Rollin 2? Share with your friends now
Bass TabsBass Tabs v2
This is a great old school 311 jam.  The other tab for this is horribly wrong

Intro/ Main Riff/ Outro:

G-----------------------------------------------------------------|
D-----------------------------------------------------------------|
A-----------------------------------------------------------------|
E---3-0-3-0-3-0-3-0-3-2-0-----------------------------------------|

Verse: (Slapped, Listen for timing)

        p p             p          p p         p p
G-------7-7-------------4h5---------------------------------------|
D---------------------------5------5-5---------7-7----------------|
A-----------------------------------------------------------------|
E---0-x------0-2h3--x-----------3------0--5-x------5\3------------|

     p p                           p p
G----7-7----------------------------------------------------------|
D----------------------------------7-7----------------------------|
A-----------------------------------------------------------------|
E--0------0h7\2--2-3-3-0-2-3-4-5-x-------5\3----------------------|


P-nut alternates between these two during the verse with a slight variation on the 
one before going back into the main riff:


     p p
G----7-7----------------------------------------------------------|
D-----------------------------------------------------------------|
A-----------------------------------------------------------------|
E--0------0h7\2--2-3-3-0-2-3-4-5------15\3------------------------|


Another variation during the part “Threw my bottle bam”

     p p
G----7-7----------------------------------------------------------|
D-----------------------------------------------------------------|
A-----------------------------------------------------------------|
E--0------0h7\2--2-3-3--------------------------------------------|


“He screeched to a halt, jumped out of his car”


G-----------------------------------------------------------------|
D-----------------------------------------------------------------|
A-----------------------------------------------------------------|
E-----3///--3///--3///--3-3///------------------------------------|

Bridge

G-----------------------------------------------------------------|
D-----------------------------------------------------------------|
A-------------5-4----------------5-4-2----------------------------|
E---0-2-0-3--------------0-2-0-3-------5-3------------------------|

G-----------------------------------------------------------------|
D-----------------------------------------------------------------|
A-------------5-4----------------5-4-2----------------------------|
E---0-2-0-3-------------0-2-0-3--------53-------------------------|

End on:  E----0----





Comments


Popular 311 tabs & chords
All Mixed Up 1 Bass Tabs
Jackolantern's Weather 2 Bass Tabs
Outside Bass Tabs
Come Original 2 Tabs
First Straw (Intro) Tabs
I Told Myself Tabs
Seems Uncertain Tabs
This Too Shall Pass Tabs
Time Is Precious Tabs
Trouble Tabs


Song lyrics



↑ Back to top | Tablatures and chords are parodies/interpretations of the original songs. You may use it for private study, scholarship, research or language learning purposes only
© 2014 AZChords.com Contact us | Privacy policy | DMCA | Add/correct tabs | Request tabs | Top 50 tabs