» »

/0-9/311-tabs-28.html

»

Rollin Tabs (ver.1)

Artists:  A B C D E F G H I J K L M N O P Q R S T U V W X Y Z # 

Rollin Tabs (ver.1)

311
Rating:
0/5 (0 votes)

Hard to play? Try these video lessons and learn fast.
                'Rollin'
Performed by 311
Music by:  N. Hexum, C. Sexton, A. Wills, & T. Mahoney
Lyrics by:  N. Hexum
(c) 1991 Allegiance Music/Hydroponic Music BMI
---------------


Intro (w/Distortion):
   N.C.
1:-----------------------
2:-----------------------
3:-----------------------
4:-----------------------
5:-----------------------
6:-3-0-3-0-3-0-3-0-3-2-0-

Verse (Clean):
        F6  G6             F6       G6   Bb6       
1:-x-x--10//12-12-12--x-x--10--x-x--12///15-15-15-
2:-x-x--10//12-12-12--x-x--10--x-x--12///15-15-15-
3:-x-x--10//12-12-12--x-x--10--x-x--12///15-15-15-
4:------------------------------------------------
5:------------------------------------------------
6:------------------------------------------------

   F6  G6         N.C.
1:-10//12-12-12---------------------
2:-10//12-12-12---10-8--------------
3:-10//12-12-12--------9-7----------
4:-------------------------9-7------
5:-----------------------------10-7-
6:----------------------------------

Fill 1 (w/Distortion [and Delay??]):
   Cm7
1:-/8\\\----/8\\\----/8\\\----8-8\\\-
2:-/8\\\----/8\\\----/8\\\----8-8\\\-
3:-/8\\\----/8\\\----/8\\\----8-8\\\-
4:-/8\\\----/8\\\----/8\\\----8-8\\\-
5:-----------------------------------
6:-----------------------------------

Bridge (w/Distortion):
   N.C.
1:-----------------------------------
2:-----------------------------------
3:-----------------------------------
4:-----------------------------------
5:---------5-4-----------5-4-2-------
6:-0-3-0-3-------0-3-0-3-------5-5-5-


Lyrics/Song Structure:
---> Play Intro (x8)
---> Play Verse over:
   Rollin' windows down kick back chillin'
   I hold it and fold it see no cold in the streets
   Dirty looks, uh, we think it's funny
   We're workin class squares, scrounge up all the money
   But we're coolin in the middle of June
   Gettin' girls, Gettin' lit and makin' up tunes
   But leave that for a bet I bet I'm shollin'
   Your lookin for some trouble and we're rollin'
---> Play Intro (x4)
---> Play verse over:
   Now I'm gonna tell a tale to you straight
   Gonna tell you a story
   It's not a fairy tale and it gets a little gory
   It happened one night when Tequilia was flowin'
   We were walkin' to my car, unaware, unknowing
   I stepped across the street in no hurry
   And what happened next, it gets a little blurry
   This jump nearly hits me in a green Pinto
   So I threw my bottle bam, it broke his window
---> Play Fill 1 over:
   He screeched to a halt, stepped out of his car
   I stepped right to him gonna make him see stars
   Yes the situation was going to explode
   Thought I'd give him a warning said you better hit the road
---> Play Verse over:
   I knew it would be easy if I tag him first
   So I cracked him in the face all of a sudden with a burst
   I hit him with a right then a left did land
   But then he turned his head and I broke my hand
---> Play Intro (x8)
---> Play Bridge over:
   What Cha' Gonna Do
   Do What Cha' Gonna
---> Play Verse over:
   I got a cast on my hand and the girls think I'm a jerk
   I can't play my bass and I can't go to work
   This is a true story it all did happen
   But you bet I regret that moment of strappin
   Been 2 years now since this all took place
   I learn from being stupid, I learn from my mistakes
   And now I live in peace at a bite and shollin
   Can't say it wasn't fun in those days of Rollin
---> Play Intro over:
   Rollin Rollin
            
Hard to play? Try these video lessons and learn fast. | Correct




comments powered by Disqus
↑ Back to top | Tablatures and chords are parodies/interpretations of the original songs. You may use it for private study, scholarship, research or language learning purposes only