» »

/0-9/311-tabs-28.html

»

311, Jupiter Tabs (ver.2)

Artists:  A B C D E F G H I J K L M N O P Q R S T U V W X Y Z # 

Jupiter Tabs (ver.2)

311 Tabs
 Rating:
4/5 (4 votes)
Jupiter lessons Tabs too difficult? Try these video lessons and learn fast
                	311
	"Jupiter"
	Transistor
	Atlantic Records 1997



The low B string is
optional in this song.



Verse
=====

e:---------------------------
b:---------------------------
G:---------------------------
D:--------------------------- x2
A:-0--0-2--2-3--3-2--2--3--2-
E:---------------------------
A:---------------------------

e:---------------------------
b:---------------------------
G:---------------------------
D:-0--0-2--2-4--4-2--2--4--2- x2
A:---------------------------
E:---------------------------
A:---------------------------



Chorus 1
========

e:------------------------------
b:------------------------------
G:------------------------------
D:------------------------------
A:-5----`3--2---`3--2---`3--2---
E:-5----`3--2---`3--2---`3--2---
A:-5----`3--2---`3--2---`3--2---

e:----------------------------------------
b:----------------------------------------
G:----------------------------------------
D:----------------------------------------
A:-5----`3--2---3-3--2--2--3--3--2-2--2---
E:-5----`3--2---3-3--2--2--3--3--2-2--2---
A:-5----`3--2---3-3--2--2--3--3--2-2--2---

e:------------------------------
b:------------------------------
G:------------------------------
D:------------------------------
A:-5----`3--2---`3--2---`3--2---
E:-5----`3--2---`3--2---`3--2---
A:-5----`3--2---`3--2---`3--2---

e:----------------------------------------
b:----------------------------------------
G:----------------------------------------
D:----------------------------------------
A:-5----`3--2---3-3--2--2--3--3--2-2--2---
E:-5----`3--2---3-3--2--2--3--3--2-2--2---
A:-5----`3--2---3-3--2--2--3--3--2-2--2---



Chorus 2
========

e:------------------------------
b:------------------------------
G:------------------------------
D:------------------------------
A:-4----`2--1---`2--1---`2--1---
E:-4----`2--1---`2--1---`2--1---
A:-4----`2--1---`2--1---`2--1---

e:----------------------------------------
b:----------------------------------------
G:----------------------------------------
D:----------------------------------------
A:-4----`2--1---2-2--1--1--2--2--1-1--1---
E:-4----`2--1---2-2--1--1--2--2--1-1--1---
A:-4----`2--1---2-2--1--1--2--2--1-1--1---

e:------------------------------
b:------------------------------
G:------------------------------
D:------------------------------
A:-5----`3--2---`3--2---`3--2---
E:-5----`3--2---`3--2---`3--2---
A:-5----`3--2---`3--2---`3--2---

e:----------------------------------------
b:----------------------------------------
G:----------------------------------------
D:----------------------------------------
A:-5----`3--2---3-3--2--2--3--3--2-2--2---
E:-5----`3--2---3-3--2--2--3--3--2-2--2---
A:-5----`3--2---3-3--2--2--3--3--2-2--2---



Before chorus 2
===============

e:-------------
b:-------------
G:-------------
D:-2-----2-----
A:-1-----1-----
E:-0-----0-----
A:-1-----1-----



Ending
======

e:--------------------------------------
b:--------------------------------------
G:--------------------------------------
D:--------------------------------------
A:--7--7---7--7---7---7--7---7--7---7---
E:--7--7---7--7---7---7--7---7--7---7---
A:--7--7---7--7---7---7--7---7--7---7---

e:--------------------------------------
b:--------------------------------------
G:--------------------------------------
D:--------------------------------------
A:--7--7---7--7---7---7--7---7--5-------
E:--7--7---7--7---7---7--7---7--5-------
A:--7--7---7--7---7---7--7---7--5-------

e:------------------------------------------
b:------------------------------------------
G:------------------------------------------
D:------------------------------------------
A:--7--7---7--7--7--7---7--7---7--7--7--7---
E:--7--7---7--7--7--7---7--7---7--7--7--7---
A:--7--7---7--7--7--7---7--7---7--7--7--7---

e:------------------------------------------
b:------------------------------------------
G:------------------------------------------
D:------------------------------------------
A:--7--7---7--7--7--7---7--7---7--7--7--7---
E:--7--7---7--7--7--7---7--7---7--7--7--7---
A:--7--7---7--7--7--7---7--7---7--7--7--7---
            
Submit corrections

comments powered by Disqus
↑ Back to top | 311 Tabs for Jupiter. Lyrics for acoustic guitar and electric guitar. Tablatures and chords are parodies/interpretations of the original songs. You may use it for private study, scholarship, research or language learning purposes only