» »

/0-9/311-tabs-28.html

»

311, Jupiter Tabs (ver.1)

Artists:  A B C D E F G H I J K L M N O P Q R S T U V W X Y Z # 

Jupiter Tabs (ver.1)

311 Tabs
 Rating:
4/5 (4 votes)
Jupiter lessons Tabs too difficult? Try these video lessons and learn fast
                'Jupiter'
Performed by 311
Music by:  C. Sexton 
Lyrics by:  N. Hexum & D. Martinez
(c) 1997 Hydroponic Music BMI
---------------


Intro (Organ - tabbed for guitar):
   Am   A
1:--------
2:-1----2-
3:-2----2-
4:-2----2-
5:--------
6:--------

Riff 1a:
   N.C.
1:--------------------------------------------
2:--------------------------------------------
3:--------------------------------------------
4:--------------------------------------------
5:-0-0-2-2-3-3-2-2--3-2--0-0-2-2-3-3-2-2--3-2-
6:--------------------------------------------

Riff 1b:
   N.C.
1:--------------------------------------------
2:--------------------------------------------
3:--------------------------------------------
4:--------------------------------------------
5:-0-0-2-2-4-4-2-2--4-2--0-0-2-2-4-4-2-2--4-2-
6:--------------------------------------------

Riff 2:
   N.C.
1:--------------------------------------
2:--------------------------------------
3:--------------------------------------
4:---------3-2----------------3-2-------
5:-3-3-5-3------------3-3-5-3-----------
6:-------------5-3-3--------------5-3-3-

   N.C.
1:--------------------------------------
2:--------------------------------------
3:--------------------------------------
4:---------4-3----------------4-3-------
5:-4-4-6-4------------4-4-6-4-----------
6:-------------6-4-4--------------5-3-3-

Riff 3:
 C#5/Ab  B5/F#-->Bb5/F    C#5/Ab  B5/F#-->Bb5/F
1:-------------------------------------------------------
2:-------------------------------------------------------
3:-------------------------------------------------------
4:-6-----4--3--4--3--4--3---6-----4--3--4-3-4-3-4--3-3-3-
5:-4-----2--1--2--1--2--1---4-----2--1--2-1-2-1-2--1-1-1-
6:-4-----2--1--2--1--2--1---4-----2--1--2-1-2-1-2--1-1-1-

Riff 4:
  D5/A  C5/G-->B5/F#      D5/A  C5/G-->B5/F#
1:-------------------------------------------------------
2:-------------------------------------------------------
3:-------------------------------------------------------
4:-7----5--4--5--4--5--4---7----5---4---5-4-5-4-5--4-4-4-
5:-5----3--2--3--2--3--2---5----3---2---3-2-3-2-3--2-2-2-
6:-5----3--2--3--2--3--2---5----3---2---3-2-3-2-3--2-2-2-

Fill 1:
   E11
1:-------
2:-------
3:-8---8-
4:-7---7-
5:-6---6-
6:-0---0-

Ending:
   D5/A                                          C5/G
1:-------------------------------------------------
2:-------------------------------------------------
3:-------------------------------------------------
4:-7-7--7-7--7--7-7--7-7--7--7-7--7-7--7--7-7--7-5-
5:-5-5--5-5--5--5-5--5-5--5--5-5--5-5--5--5-5--5-3-
6:-5-5--5-5--5--5-5--5-5--5--5-5--5-5--5--5-5--5-3-


Lyric/Song Strucrture:
---> Play Intro (x3)
---> Play Riff 1 (a + b) over:
   Sometimes the only thing that saves you
   Think of bad thing luck never gave you 
   And although your true love has just left you
   Be thankful that your mother kept you, yes she did 
---> Play Riff 2 over:
   Be sure that a dream's alive
   There are only short burst in life
   Are you able to be satisfied
   Do you expect fun all the time 
---> Play Riff 3 over:
   Hey we can rock it easy and lay it in the fold
   Hey we can shake you simply just by being cold
---> Play Riff 4 over:
   And if it falls apart will you still be my friend
   Get back we're gonna stick together
---> Play Riff 1 over:
   And so many things that have gone wrong
   At least you have ears to hear this song
   And if you're reading in closed caption
   There's still bad things that could have happened, yes there is
---> Play Riff 2 over:
   Long time since you first came here
   And sometimes we fall on deaf ears
   One thing I've got to say before sales dive
   Be positive and love your life
---> Play Fill 1
---> Play Riff 3 over:
   Hey we can rock it easy and lay it in the fold
   Hey we can shake you simply just by being cold
---> Play Riff 4 over:
   And if it falls apart will you still be my friend
   Get back we're gonna stick together
---> Play Ending (x2)
---> End on an D5/A (5577xx)
            
Submit corrections

comments powered by Disqus
↑ Back to top | 311 Tabs for Jupiter. Lyrics for acoustic guitar and electric guitar. Tablatures and chords are parodies/interpretations of the original songs. You may use it for private study, scholarship, research or language learning purposes only