» »

/0-9/311-tabs-28.html

»

311, I'll Be Here Awhile Tabs (ver.2)

Artists:  A B C D E F G H I J K L M N O P Q R S T U V W X Y Z # 

I'll Be Here Awhile Tabs (ver.2)

311 Tabs
 Rating:
4/5 (4 votes)
I'll Be Here Awhile lessons Tabs too difficult? Try these video lessons and learn fast
1
                Please rate this tab.

Intro:
G.1
E|-0-00-0-0-0-2-02-2/3-3-2-0---------------|
B|------------1-11---0-0-0-0--3-1-0-----1--|
G|-2-22-2-2-2-----------------------234--2-|
D|-----------------------------------------|
A|-----------------------------------------|
E|-----------------------------------------|

E|-00-0-0-2-02-2/3--2--0--------------|
B|--------1-11------------3---------1-|
G|-22-2-2----------4--4--4---45-234---|
D|----------------5--5--5---5---------|
A|------------------------------------|
E|------------------------------------|

Chorus 1:
G.2
E|-7-7-7-7-7-7-7-7-3-3-3-3-3-3-3-3-|
B|-8-8-8-8-8-8-8-8-3-3-3-3-3-3-3-3-|
G|-9-9-9-9-9-9-9-9-4-4-4-4-4-4-4-4-|
D|---------------------------------|
A|---------------------------------|
E|---------------------------------|

Verse:
G.2
A1)
E|-2-2-2-2-2-2-2-2-3-3-3-3-3-3-3-3-|
B|-3-3-3-3-3-3-3-3-3-3-3-3-3-3-3-3-|
G|-4-4-4-4-4-4-4-4-4-4-4-4-4-4-4-4-|
D|---------------------------------|
A|---------------------------------|
E|---------------------------------|

G.2
B1)
E|-3-3-|
B|-5-3-|
G|-4-4-|
D|-----|
A|-----|
E|-----|

G.2
B2)
E|-----3-3h5h3---0-2-----7-||---3-3----3-3-|
B|---3---------3-------5-5-||--5--5---3--3-|
G|-4------------------4--4-||-4---4--4---4-|
D|--5-5--------------5---5-||--------------|
A|-------------------------||--------------|
E|-------------------------||--------------|

Chorus 2:
G.1
E|-0-00-0-0-0-2-02-2/3-3-2-0---------------|
B|------------1-11---0-0-0-0--3-1-0-----1--|
G|-2-22-2-2-2-----------------------234--2-|
D|-----------------------------------------|
A|-----------------------------------------|
E|-----------------------------------------|

G.2
E|-7-7-7-7-7-7-7-7-3-3-3-3-3-3-3-3-|
B|-8-8-8-8-8-8-8-8-3-3-3-3-3-3-3-3-|
G|-9-9-9-9-9-9-9-9-4-4-4-4-4-4-4-4-|
D|---------------------------------|
A|---------------------------------|
E|---------------------------------|


ORDER:
Intro
Chorus 1
Verse A1 
Verse B1
Chorus 1
Verse A1 
Verse B1
Chorus 2
Verse B2
Chorus 2
            
Submit corrections

comments powered by Disqus
↑ Back to top | 311 Tabs for I'll Be Here Awhile. Lyrics for acoustic guitar and electric guitar. 1 Tablatures and chords are parodies/interpretations of the original songs. You may use it for private study, scholarship, research or language learning purposes only