» »

/0-9/311-tabs-28.html

»

311, I'll Be Here Awhile Bass tabs (ver.3)

Artists:  A B C D E F G H I J K L M N O P Q R S T U V W X Y Z # 

I'll Be Here Awhile Bass tabs (ver.3)

311 Tabs
 Rating:
4/5 (4 votes)
I'll Be Here Awhile lessons Tabs too difficult? Try these video lessons and learn fast
                "Band: 311
Revised by: jon lukito
Note: italicized = muted notes

not sure if it's the bass playing in the background on the intro, but these are the 
theres some effect on it if so.

Intro
G:----------------------------------------------------------|
D:----------------------------------------------------------|
A:--------7----7--------7---7--------5-5-5-2-2----5-5-5-2-3-|
E:-5-5--5---5----5-5--5---5---5-3-3------------3------------|
B:----------------------------------------------------------|

Riff 1
G:------------------------------------------------------|
D:------------------------------------------------------|
A:-0-0--0-2-2--2-3-3--3-3-3-2-----3-5-3--5—-3--2--0-2-3-|
E:----------------------------3-3-----------------------|
B:------------------------------------------------------|

Riff 2:
G:------------2---------------2-------------------------------|
D:--------2-----2---------2-----2-----------------------------|
A:-0-0--3---3------0-0--3---3-----------3-5-3—-5--3—-2—-0-2-3-|
E:---------------------------------3-3------------------------|
B:------------------------------------------------------------|

Riff 3:
G:---------4--7--6---4-7-6------------------------------|
D:------4----------4-------4----------------------------|
A:-2-2--------------------------------------------------|
E:-----------------------------0-0--2--3--2--0-2-3-2--0-|
B:------------------------------------------------------|

Riff 4:
G:----------4-----------------4-------|
D:----2--5-----5--2-------------------|
A:-3--------------------2--5-----5--2-|
E:-------------------3----------------|
B:------------------------------------|

G:---------4-----------------4--2--4-|
D:----2--5---5---2-------------------|
A:-3--------------------2--5---------|
E:-------------------3---------------|
B:-----------------------------------|

Riff 5:
G:--------------------------------------------------------------------------|
D:--------------------------------------------------------------------------|
A:------------------------------------------0-h2-----0-h2-----0-h2-----0-h2-|
E:-----0-h2-----0-h2-----0-h2-----0-h2--0-0------0-0------0-0------0-0------|
B:-0-0------0-0------0-0------0-0-------------------------------------------|

G:--------------------------------------------------------------------------|
D:--------------------------------------------------------------------------|
A:------------------------------------------0-h2-----0-h2-2-3-2---2-3-2-----|
E:-----0-h2-----0-h2-----0-h2-----0-h2--0-0------0-0------------3-------3---|
B:-0-0------0-0------0-0------0-0-------------------------------------------|

Riff 6:
G:----------------------------------------------2---4---|
D:------------------------------------------------------|
A:------------------------------------------------------|
E:-------------3-----3-----------------3-----3----------|
B:-1-----1-----------------1-----1----------------------|


PLAY ORDER:
Intro Riff (x2)
Riff 1 (x2)
Riff 2 (x2)
Riff 3 (x2)
Riff 4
Riff 1 (x2)
Riff 2 (x2)
Riff 3 (x2)
Riff 4
Riff 1 (x2)
Riff 2 (x2)
Riff 5
Riff 6
Riff 1 (x2)
Riff 2 (x1½)
"            
Submit corrections

comments powered by Disqus
↑ Back to top | 311 Bass for I'll Be Here Awhile. Lyrics for acoustic guitar and electric guitar. Tablatures and chords are parodies/interpretations of the original songs. You may use it for private study, scholarship, research or language learning purposes only