» »

/0-9/311-tabs-28.html

»

Don't Stay Home Bass tabs (ver.1)

Artists:  A B C D E F G H I J K L M N O P Q R S T U V W X Y Z # 

Don't Stay Home Bass tabs (ver.1)

311
Rating:
0/5 (0 votes)

Hard to play? Try these video lessons and learn fast.
                Arranged for 4 string in standard tuning: Low to high E A D G 

Cool 311 song

Verse                      Before chorus
g|-------------------------|---------------
d|-------------------------|---------------
a|-----------5-----------5-|-----------5---
e|-3-3-3-3-3---7-7-7-7-7---|-3-3-3-3-3---0-

Chorus
g|------------------------------------------
d|-----2-----------2-------2----------------
a|---2-----------2-------2-----------2/4/2--
e|-0-----3/4-4-2-----0-0-----3/4-4-2--------


Transition:   Faster
g|------------|------------------------
d|------------|------------------------
a|------------|---------------7--------
e|-0-0-0-0----|-0-7-4-5-2-6-7----------


Last Chorus
g|---------------------------------------
d|---------------------------------------
a|----------------5-7---2-2-2---0-0-0----
e|-0-0-5-7-(0)5-5-------------2-------4--



One More thing....
These tabs are made by myself.  I do not copy them out of tab books or off of the internet.  They
are created by me sitting on my bed with a portable cd player, my bass guitar, and a peice of 
paper.  They are probably not right, but they give you something to go by.  I tab them based on 
-Daine


-- 
__--__(())__--__(())__--__**|**__--__(())__--__(())__--__**|
TV and money rule the world today.  The government can 
access all our files.  They can tell us when we took our 
first step.  What brand of cereal we buy most.  When will 
it stop?  At what will it stop?  Who rules the country?  
    WHOEVER HAS THE MOST MONEY HAS THE MOST POWER.
ICQ 16162798                        Credit card#-ask the FBI.
            
Hard to play? Try these video lessons and learn fast. | Correct




comments powered by Disqus
↑ Back to top | Tablatures and chords are parodies/interpretations of the original songs. You may use it for private study, scholarship, research or language learning purposes only