» »

/0-9/311-tabs-28.html

»

311, Don't Stay Home Bass tabs (ver.2)

Artists:  A B C D E F G H I J K L M N O P Q R S T U V W X Y Z # 

Don't Stay Home Bass tabs (ver.2)

311 Tabs
 Rating:
4/5 (4 votes)
Don't Stay Home lessons Tabs too difficult? Try these video lessons and learn fast
1
                Riff 1:
g:-----------------------------------------------|
d:-----------------------------------------------|
a:----------------------5-2-2---2-2-2---2-2---2-5|
e:3-3---3-3-3---3---3-3--------------------------|


Fill 1:
g:------|
d:------|
a:------|
e:0-----|


Riff 2:
g:----------------------------------------------------|
d:---------2---------------2---------2----------------|
a:-------2---------------2---------2-------------2-4-2|
e:0-0----------4-5-5---2-----0-0-------4-5-5---2------|



Fill 2:
g:----------------|
d:----------------|
a:----------------|
e:0-----0--0--0--0|



Riff 3:
g:------------------------|
d:-------------------1-(2)|Last time
a:------------1--2-2------|
e:0--7-4--5-2-------------|


End:
g:-------------6-9----------------4---4------|
d:-----6-9--7-------------------6---6---6-4-0|
a:7-7-------------------7-9--0---------------|
e:-----------------7-7-----------------------|
            
Submit corrections

comments powered by Disqus
↑ Back to top | 311 Bass for Don't Stay Home. Lyrics for acoustic guitar and electric guitar. 1 Tablatures and chords are parodies/interpretations of the original songs. You may use it for private study, scholarship, research or language learning purposes only