>
 >
Oblivion 1

Oblivion 1 Guitar Tabs

30 Seconds To Mars - Oblivion 1 chords, tabs, tablatures, lyrics

Guitar lessons | Add/correct | Request | Top 50 tabs Artists:  A B C D E F G H I J K L M N O P Q R S T U V W X Y Z 0-9

Oblivion 1 Guitar Tabs – 30 Seconds To Mars

CD, Sheet music, Poster

Do you like Oblivion 1? Share with your friends now
Bass TabsTabsTabs v2Tabs v3
Tuning: Drop C -  CGCFAD
Intro - pluck each chord once with 4 beats in between each.
(with a delay)

|-10----------10----------10----------10-|
|-11----------10----------10----------10-|
|-12----------10----------10----------10-|
|--------------------------8----------10-|
|----------------------------------------|
|----------------------------------------|


"everybody ru-uuunnn..." is when you come in with this next part.
Listen to the song to it, it's pretty easy.

Tab part 1

|-10-10-10-10-10-10--13-10-10-10-10-10-10-13-10-10-10-10-10-10-10-10-10-10-10-10-10-|
|-11-11-11-11-11-11--11-10-10-10-10-10-10-10-10-10-10-10-10-10-10-10-10-10-10-10-10-|
|-12-12-12-12-12-12--12-10-10-10-10-10-10-10-10-10-10-10-10-10-10-10-10-10-10-10-10-|
|---------------------------------------------8--8--8--8--8--8-10-10-10-10-10-10-10-|


This is immediately followed by this next part which is the chorus, 
this is played while the Tab part 1 is played also quietly in the background on a 2nd guitar.
Repeat this twice.

|-12-/-1--------3--------5--------8--------10-8-7-8--|
|-12-/-1--------3--------5--------8--------10-8-7-8--|
|-12-/-1--------3--------5--------8--------10-8-7-8--|


Verse 2 - This riff is played quickly and quietly in the background during the 2nd verse.

|--------------------------------------|
|-6-5-3-5-3-6-6-5-3-5-3-6--|


Then play Tab part 1 again,


Chorus 2 - Again play this twice with the Interlude 1 playing in the background.

|-12-10-9-1--------3--------5--------8-10-8-7-8--|
|-12-10-9-1--------3--------5--------8-10-8-7-8--|
|-12-10-9-1--------3--------5--------8-10-8-7-8--|


Interlude 2 - this is played once by itself, lsiten to the song to get the timing right.

|------------------------------------------------------------------------------------------------------------------------|
|-------------------------------------13-11--11-11-12-8--8-8-11---8-8-8-6-8-11------|
|-----7-3--3-3-8-5--5-5-10--12--12-12-12-10--10-10-12-8--8-8-10---7-7-7-5-7-10------|
|-5-5-7-3--3-3-8-5--5-5-10--12--12-12-10--8---8--8-10-6--6-6--8---5-5-5-3-5-8-------|
|-5-5-5-1--1-1-6-3--3-3--8--10--10-10--------------------------------------------------------------------|
|-5-5-5-1--1-1-----------------------------------------------------------------------------------------------------|


Final Chorus - Play this riff while the chorus 2 is repeated a few times on the 2nd guitar.

|-12-12-12-12-12-12-12-12-14-14-14-14-14-14-14-15-15-15-15-15-15-15-15-13-13-13-13-11-11-11-11--|
|-------------------------------------------------------------------------------------------------------------------------------------------------------------|

Outro - Pluck this very quickly then stop the chord, very violently.

|-0000000X0000000X0000000X-|
|-0000000X0000000X0000000X-|
|-0000000X0000000X0000000X-|





Comments


Popular 30 Seconds To Mars tabs & chords
This Is War 1 Chords
Edge Of The Earth Drum Tabs
A Modern Myth Tabs
A Modern Myth 1 Tabs
Equinox 1 Tabs
L490 Intro Tabs
The Kill 5 Tabs
The Race Intro Tabs
Hurricane Ukulele
Revenge Ukulele


Song lyrics



↑ Back to top | Tablatures and chords are parodies/interpretations of the original songs. You may use it for private study, scholarship, research or language learning purposes only
© 2014 AZChords.com Contact us | Privacy policy | DMCA | Add/correct tabs | Request tabs | Top 50 tabs