» » »

30 Seconds To Mars, Oblivion Tabs (ver.3)

Artists:  A B C D E F G H I J K L M N O P Q R S T U V W X Y Z # 

Oblivion Tabs (ver.3)

30 Seconds To Mars Tabs
 Rating:
4/5 (4 votes)
Oblivion lessons Tabs too difficult? Try these video lessons and learn fast
                tuning:cgcfad
this is the best $13 i ever spent! truly a great album!
sorry, no intro

||---------------------
||--6-5---5---6-5---5--
||------7---7-----7---7
||---------------------
||---------------------
||---------------------

||---10-10-10-10-10-13-13-13-10--10-10-10-10-13-13-13-10--
||---11-11-11-11-11-11-11-11-11--10-10-10-10-10-10-10-10--
||---12-12-12-12-12-12-12-12-12--10-10-10-10-10-10-10-10--
||--------------------------------------------------------
||--------------------------------------------------------
||--------------------------------------------------------

||---10-10-10-10-10-13-13-13-10--13-13-13-13-13-13-13-13--
||---11-11-11-11-11-11-11-11-11--13-13-13-13-13-13-13-13--
||---12-12-12-12-12-12-12-12-12---------------------------
||--------------------------------------------------------
||--------------------------------------------------------
||--------------------------------------------------------

||---------------------------------
||---------------------------------
||---------------------------------
||-1----3----5----8----------------
||-1----3----5----8---10-8-7-8-----
||-1----3----5----8---10-8-7-8-----

||------------------------------------------------------------------
||-7----------------------------------------------------------------
||-5----7----3----8----5---10--12---17--15--17--13-15-12-10-12--15--
||-5----7----3----8----5---10--12---17--15--17--13-15-12-10-12--15--
||-5----5----1----6----3---8---10---15--13--15--11-13-10-8--10--13--
||------------------------------------------------------------------
 
||------------------------------------------------------------------
||------------------------------------------------------------------
||------------------------------------------------------------------
||------7---------1---------3---5---10--8---10--6--8--5--3--5--8-8-8
||-5---------1---------3--------------------------------------------
||------------------------------------------------------------------

||----------------------------------------------------------------------
||---------------------------------13-11---13--9--11-8--6--8---11-11-11-
||------7-----3---8----5----10-12---------------------------------------
||---------------------------------10--8---10--6--8--5--3--5---8--8--8--
||-5----5-----1---6----3----8--10---------------------------------------
||----------------------------------------------------------------------

||-----------------------------------
||-----------------------------------
||-----------------------------------
||-0----------0----------0-----------
||-0----------0----------0-----------
||-0----------0----------0-----------
            
Submit corrections

comments powered by Disqus
↑ Back to top | 30 Seconds To Mars Tabs for Oblivion. Lyrics for acoustic guitar and electric guitar. Tablatures and chords are parodies/interpretations of the original songs. You may use it for private study, scholarship, research or language learning purposes only