» » »

30 Seconds To Mars, Oblivion Tabs (ver.1)

Artists:  A B C D E F G H I J K L M N O P Q R S T U V W X Y Z # 

Oblivion Tabs (ver.1)

30 Seconds To Mars Tabs
Rating:
0/5 (0 votes)
Oblivion lessons Tabs too difficult? Try these video lessons and learn fast
                30 Seconds to Mars
Tuning:  CGCFAD
This I believe to be their (Jared’s) best song on the album,
It will definitely give them huge success if they release this as a single.

Intro:
This has a multi echo delay, I use a Korg AX 1500G,
I set it at, Stereo Delay, Time is around 500 and turn up the volume
This should work on other effects pedal,

I do welcome any Corrections.
||---10--------10------------------
||---11--------10------10-----10---
||---12--------10------10-----10---
||---------------------------------
||---------------------------------
||---------------------------------

||---------------------
||--6-5---5---6-5---5--
||------7---7-----7---7
||---------------------
||---------------------
||---------------------

||---10-10-10-10-10-13-13-13-10--10-10-10-10-13-13-13-10--
||---11-11-11-11-11-11-11-11-11--10-10-10-10-10-10-10-10--
||---12-12-12-12-12-12-12-12-12--10-10-10-10-10-10-10-10--
||--------------------------------------------------------
||--------------------------------------------------------
||--------------------------------------------------------

||---10-10-10-10-10-13-13-13-10--13-13-13-13-13-13-13-13--
||---11-11-11-11-11-11-11-11-11--13-13-13-13-13-13-13-13--
||---12-12-12-12-12-12-12-12-12---------------------------
||--------------------------------------------------------
||--------------------------------------------------------
||--------------------------------------------------------
                                             |2nd Guitar full distortion
Slides down the fret board at this point into the Chorus
||---------------------------------
||---------------------------------
||---------------10----------------
||-1----3----5----8----------------
||-1----3----5----8---10-8-7-8-----
||-1----3----5----8---10-8-7-8-----
Credit Goes to Dogslayer69 for this piece but I have alternated around a little
||------------------------------------------------------------------
||-7----------------------------------------------------------------
||-5----7----3----8----5---10--12---17--15--17--13-15-12-10-12--15--
||-5----7----3----8----5---10--12---17--15--17--13-15-12-10-12--15--
||-5----5----1----6----3---8---10---15--13--15--11-13-10-8--10--13--
||-5----5----1------------------------------------------------------
The Second Guitar Plays single notes and lets ring alot and slides up and
down the fret board 
||------------------------------------------------------------------
||------------------------------------------------------------------
||------------------------------------------------------------------
||------7---------1---------3---5---10--8---10--6--8--5--3--5--8-8-8
||-5---------1---------3--------------------------------------------
||------------------------------------------------------------------
Might be played like this (Whichever suits the guitarists)
||----------------------------------------------------------------------
||---------------------------------13-11---13--9--11-8--6--8---11-11-11-
||------7-----3---8----5----10-12---------------------------------------
||---------------------------------10--8---10--6--8--5--3--5---8--8--8--
||-5----5-----1---6----3----8--10---------------------------------------
||----------------------------------------------------------------------
Corrections, advice and slag offs are welcome, all helps to complete the song!

This is an amazing album, you must go and buy it now!
Clemo

- - - - - - - - - - - - - - - - - - - - - - - - - - - - - - - - - - - - - 
Updates 30/09/02

I have listened to this amazing song again and have found a riff to be a little different.Tuning:  CGCFAD

||---10-10-10-10-10-13-13-13-10--10-10-10-10-13-13-13-10--
||---11-11-11-11-11-11-11-11-11--10-10-10-10-10-10-10-10--
||---12-12-12-12-12-12-12-12-12--10-10-10-10-10-10-10-10--
||--------------------------------------------------------
||--------------------------------------------------------
||--------------------------------------------------------

||---10-10-10-10-10-11-11-11-10--13-13-13-13-13-13-13-13--
||---11-11-11-11-11-11-11-11-11--13-13-13-13-13-13-13-13--
||---10-10-10-10-10-10-10-10-10---------------------------
||--------------------------------------------------------
||--------------------------------------------------------
||--------------------------------------------------------
 and also the heavy outro goes like this
||-----------------------------------
||-----------------------------------
||---[hold]------[hold]-----[hold]---
||-0----------0----------0-----------
||-0----------0----------0-----------
||-0----------0----------0-----------
make sure to rest after each note

I hope to complete this excellent song so all corrections and inputs are most appreciated.

Clemo
            

comments powered by Disqus
↑ Back to top | 30 Seconds To Mars Tabs for Oblivion. Lyrics for acoustic guitar and electric guitar. Tablatures and chords are parodies/interpretations of the original songs. You may use it for private study, scholarship, research or language learning purposes only