>
 >
Capricorn

Capricorn Guitar Tabs

30 Seconds To Mars - Capricorn chords, tabs, tablatures, lyrics

Guitar lessons | Add/correct | Request | Top 50 tabs Artists:  A B C D E F G H I J K L M N O P Q R S T U V W X Y Z 0-9

Capricorn Guitar Tabs – 30 Seconds To Mars

CD, Sheet music, Poster

Do you like Capricorn? Share with your friends now
ChordsTabsTabs v2Tabs v3Tabs v4Ukulele

Tuning: Drop C (C G C F A D)

Intro
|-------------------------------------------------------|
|-------------------------------------------------------|
|-----------------------------------------------------8-|
|-0-0-0-6-x-x-x-x-x-0-0-0-6-x-0-0-0-6-x-x-x-x-x-0-0-0-x-|
|-0-0-0-6-x-x-x-x-x-0-0-0-6-x-0-0-0-6-x-x-x-x-x-0-0-0-6-|
|-0-0-0-6-x-x-x-x-x-0-0-0-6-x-0-0-0-6-x-x-x-x-x-0-0-0---|

|-----------------------------------------------------------|
|-----------------------------------------------------------|
|-----------------------------------------------------------|
|-0-0-0-6-x-x-x-x-x-0-0-0-6-x-0-0-0-6-x-x-x-x-x-x-x-x-x-x-x-|
|-0-0-0-6-x-x-x-x-x-0-0-0-6-x-0-0-0-6-x-x-x-x-x-x-x-x-x-x-x-|
|-0-0-0-6-x-x-x-x-x-0-0-0-6-x-0-0-0-6-x-x-x-x-x-x-x-x-x-x-x-|

|-------------------------------------------------------|
|-------------------------------------------------------|
|-----------------------------------------------------8-|
|-0-0-0-6-x-x-x-x-x-0-0-0-6-x-0-0-0-6-x-x-x-x-x-0-0-0-x-|
|-0-0-0-6-x-x-x-x-x-0-0-0-6-x-0-0-0-6-x-x-x-x-x-0-0-0-6-|
|-0-0-0-6-x-x-x-x-x-0-0-0-6-x-0-0-0-6-x-x-x-x-x-0-0-0---|

|---------------------------------------------------------------------|
|---------------------------------------------------------------------|
|---------------------------------------------10-10-10-10-12-12-12-12-|
|-0-0-0-6-x-x-x-x-x-0-0-0-6-x-0-0-0-6-x-x-x-x-x--x--x--x--x--x--x--x--|
|-0-0-0-6-x-x-x-x-x-0-0-0-6-x-0-0-0-6-x-x-x-x-8--8--8--8--10-10-10-10-|
|-0-0-0-6-x-x-x-x-x-0-0-0-6-x-0-0-0-6-x-x-x-x-------------------------|

Chorus
|---------------------------------------------------------|
|---------------------------------------------------------|
|---------------7-7-7-7-8-8-8---------------5-5-5-5-5-5-5-|
|-5-5-5-5-5-5-5-x-x-x-x-x-x-x-3-3-3-3-3-3-3-x-x-x-x-x-x-x-|
|-5-5-5-5-5-5-5-5-5-5-5-6-6-6-3-3-3-3-3-3-3-3-3-3-3-3-3-3-|
|-5-5-5-5-5-5-5---------------3-3-3-3-3-3-3---------------|

|-------------------------------------------------------|
|-------------------------------------------------------|
|---------------7-7-7-7-8-8-8----------------5-5-5-5-7/-|
|-5-5-5-5-5-5-5-x-x-x-x-x-x-x-3-3-3-3-3-3----x-x-x-x-x--|
|-5-5-5-5-5-5-5-5-5-5-5-6-6-6-3-3-3-3-3-3----3-3-3-3-5/-|
|-5-5-5-5-5-5-5---------------3-3-3-3-3-3---------------|

|---------------------------------------------------------|
|---------------------------------------------------------|
|---------------7-7-7-7-8-8-8---------------5-5-5-5-3-3-3-|
|-5-5-5-5-5-5-5-x-x-x-x-x-x-x-3-3-3-3-3-3-3-x-x-x-x-x-x-x-|
|-5-5-5-5-5-5-5-5-5-5-5-6-6-6-3-3-3-3-3-3-3-3-3-3-3-1-1-1-|
|-5-5-5-5-5-5-5---------------3-3-3-3-3-3-3---------------|

|-----------------------------------------------------------|
|-----------------------------------------------------------|
|-----------------------------------------------------------|
|-1-1-1-1-1-1-1-1-1-1-1-1-1-1/8-8-8-8-8-8-8-8-8-8-8-8-8-8-8-|
|-1-1-1-1-1-1-1-1-1-1-1-1-1-1/8-8-8-8-8-8-8-8-8-8-8-8-8-8-8-|
|-1-1-1-1-1-1-1-1-1-1-1-1-1-1/8-8-8-8-8-8-8-8-8-8-8-8-8-8-8-|

Verse (w/ clean tone and delay)
|-------------------------------------------------|
|-------13----15-------13----15-------11----10----|
|-12-12----12----12-12----12----12-12----12----12-|
|-------------------------------------------------|
|-------------------------------------------------|
|-------------------------------------------------|

|-------------------------------------------------|
|-------13----15-------11----10-------13----11----|
|-12-12----12----12-12----12----12-12----12----12-|
|-------------------------------------------------|
|-------------------------------------------------|
|-------------------------------------------------|
Repeat both riffs 2 times total.

Repeat Chorus
Play Verse again with Verse Fill at the end.

Verse Fill
|---------------------|
|---------------------|
|---------------------|
|---------------------|
|---------------------|
|-*9/8/7/6/5/4/3/2.3*-|
NOTE: *=Natural Harmonics

Play Chorus with Chorus Fill at the end.

Chorus Fill
|------|
|------|
|------|
|-3--5-|
|-3--3-|
|-3--3-|

Interlude
|-------------------------------------------------------|
|-------------------------------------------------------|
|-----------------------------------------------------8-|
|-0-0-0-6-x-x-x-x-x-0-0-0-6-x-0-0-0-6-x-x-x-x-x-0-0-0-x-|
|-0-0-0-6-x-x-x-x-x-0-0-0-6-x-0-0-0-6-x-x-x-x-x-0-0-0-6-|
|-0-0-0-6-x-x-x-x-x-0-0-0-6-x-0-0-0-6-x-x-x-x-x-0-0-0---|

|-------------------------------------------------------|
|-------------------------------------------------------|
|-------------------------------------------------------|
|-0-0-0-6-x-x-x-x-x-0-0-0-6-x-0-0-0-6-x-x-x-7/6/5-7/6/5-|
|-0-0-0-6-x-x-x-x-x-0-0-0-6-x-0-0-0-6-x-x-x-5/4/3-7/6/5-|
|-0-0-0-6-x-x-x-x-x-0-0-0-6-x-0-0-0-6-x-x-x-------7/6/5-|

|-------------------------------------------------------|
|-------------------------------------------------------|
|-----------------------------------------------------8-|
|-0-0-0-6-x-x-x-x-x-0-0-0-6-x-0-0-0-6-x-x-x-x-x-0-0-0-x-|
|-0-0-0-6-x-x-x-x-x-0-0-0-6-x-0-0-0-6-x-x-x-x-x-0-0-0-6-|
|-0-0-0-6-x-x-x-x-x-0-0-0-6-x-0-0-0-6-x-x-x-x-x-0-0-0---|

|----------------------------------------------------|
|----------------------------------------------------|
|----------------------------------------------------|
|-0-0-0-6-x-x-x-x-x-0-0-0-6-x-0-0-0-6-x-x-x-7/6--5/4-|
|-0-0-0-6-x-x-x-x-x-0-0-0-6-x-0-0-0-6-x-x-x-5/4--3/2-|
|-0-0-0-6-x-x-x-x-x-0-0-0-6-x-0-0-0-6-x-x-x-5/4--3/2-|

Outro
The Outro is the verse played twice with the Outro Fill at the end.

Outro Fill
|-------------------------------------------------------|
|-------------------------------------------------------|
|-------------------------------------------------------|
|-1-1-1-1-1-1-1-1-1-1-1-1-1-1/8-8-8-8-8-8-8-0-3-4-3-6-5-|
|-1-1-1-1-1-1-1-1-1-1-1-1-1-1/8-8-8-8-8-8-8-0-3-4-3-4-3-|
|-1-1-1-1-1-1-1-1-1-1-1-1-1-1/8-8-8-8-8-8-8-0-3-4-3-----|

That's all there is to it.





Comments


Popular 30 Seconds To Mars tabs & chords
Hurricane 1 Chords
Moder Myth Chords
Night Of The Hunter Chords
Search And Destroy Chords
Stranger In A Strange Land 2 Chords
Edge Of The Earth Drum Tabs
Depuis Le Dbut Tabs
Ill Attack 1 Tabs
Story 5 Tabs
Story Intro 1 Tabs


Song lyrics



↑ Back to top | Tablatures and chords are parodies/interpretations of the original songs. You may use it for private study, scholarship, research or language learning purposes only
© 2014 AZChords.com Contact us | Privacy policy | DMCA | Add/correct tabs | Request tabs | Top 50 tabs