» » »

Adrenaline Tabs (ver.3)

Artists:  A B C D E F G H I J K L M N O P Q R S T U V W X Y Z # 

Adrenaline Tabs (ver.3)

12 Stones
Rating:
4/5 (1 vote)

Hard to play? Try these video lessons and learn fast.
                CGCFAD
this is perfect but its mainly the overview of the song.


|---------------------------------------------|
|---------------------------------------------|(intro)
|---------------------------------------------|
|----------------------------------------5----|with wah
|--------3h5--6p5------3h5--6p5----3h5------5-|
|--0--0-----------0--0------------------------|


|---------------------------------------|
|---------------------------------------|
|---------------------------------------|
|---------------------------------------|
|-----5*--------------------------------|(transition)
|---------------------------------------|

|-------------------------------------------------------------|
|-------------------------------------------------------------|(main riff)
|-------------------------------------------------------------|
|-------------------------------------------------|-----------|
|--0--0--10h12--13p12--0---10h12--13p12--0--10h12-|10---------|last time,
|--0--0--10h12--13p12--0---10h12--13p12--0--10h12-|----12-----|dont play.

                       natural harmonic
|---------------------|------------------|
|---------------------|------------------|
|---------------------|----(5------------|(verse)
|---------------------|-------5----------|
|---0-0--0-0--3-5-5---|---------5)-------|
|---0-0--0-0--3-5-5---|------------------| (played on the 2nd verse)

|-----------------------------------------------------|
|-----------------------------------------------------|
|-------------------14/12-----------------------------|
|----------------------------------------------|-5----| (chorus)
|----0--8---3--3--5-12/10-0--8--3---5x5x5x555--|-5----|
|----0--8---3--3--5-------0--8--3---5x5x5x555--|-5----|


|--------------------------------------|------|
|--------------------------------------|------|
|---11-/--12--/--14--\12--11-/--12/-14-|--12--|(octaves in chorus)
|---x-----x------x----x---x-----x---x--|--x---|
|---9--/--10--/--12--\10---9-/--10/-12-|--10--|
|--------------------------------------|------|


ill post the bridge later*
            
Hard to play? Try these video lessons and learn fast. | Correct




comments powered by Disqus
↑ Back to top | Tablatures and chords are parodies/interpretations of the original songs. You may use it for private study, scholarship, research or language learning purposes only