>
 >
Adrenaline

Adrenaline Guitar Tabs

12 Stones - Adrenaline chords, tabs, tablatures, lyrics

Guitar lessons | Add/correct | Request | Top 50 tabs Artists:  A B C D E F G H I J K L M N O P Q R S T U V W X Y Z 0-9

Adrenaline Guitar Tabs – 12 Stones

CD, Sheet music, Poster

Do you like Adrenaline? Share with your friends now
Bass TabsBass Tabs v2TabsTabs v2Tabs v3
| \  slide down
| h  hammer-on
| p  pull-off
| *  harmonic
| x  Mute note

Intro (may sound off without appropriate effects)
Riff 1
D|--------------------------|---------|
A|--------------------------|---------|
F|--------------------------|---------|
C|--------------------------|---------|
G|-----------5p3---------5p3|---------|
C|---0-0-3h5-----0-0-3h5----|-3h5-5---|x8

On the fouth time thorugh Riff 1, don't play last measure, but play this:

D|--------|
A|--------|
F|--------|
C|---5*---|
G|--------|
C|--------|

Then continue the rest of the intro normally

Verse                          
D|-----------------------|   D|-----------|   D|-----------|
A|-----------------------|   A|-----------|   A|-----------|
F|-----------------------|   F|-----------|   F|-----------|
C|---0-00--000-00-355----|   C|---0-00----|   C|-----------|
G|---0-00--000-00-355----|   G|---0-00----|   G|---x\------|
C|---0-00--000-00-355----|x3 C|---0-00----|x1 C|---x\------|x1

Then Intro Riff x4

Chorus
D|-----------------------------------------------------------------|
A|-----------------------------------------------------------------|
F|---------3-3-3-3-3---------------------------3-3-3-3-3-----------|
C|---0--0--3-3-3-3-3--3--3--5-5-5-5-5-5--0--0--3-3-3-3-3--3--3-3---|
G|---0--0--1-1-1-1-1--3--3--5-5-5-5-5-5--0--0--1-1-1-1-1--3--3-3---|
C|---0--0-------------3--3--5-5-5-5-5-5--0--0-------------3--3-3---|

D|-----------------------------------------------------------------|
A|-----------------------------------------------------------------|
F|-------------------------3-3-3-3-3---------------------------3-3-|
C|---5--5--5--5-5-5--0--0--3-3-3-3-3--3--3--5-5-5-5-5-5--0--0--3-3-|
G|---5--5--5--5-5-5--0--0--1-1-1-1-1--3--3--5-5-5-5-5-5--0--0--1-1-|
C|---5--5--5--5-5-5--0--0-------------3--3--5-5-5-5-5-5--0--0------|

D|-----------------------|
A|-----------------------|
F|---3-3-3---------------|
C|---3-3-3--3--3-3--5----|
G|---1-1-1--3--3-3--5----|
C|----------3--3-3--5----|

Intro riff x2

Verse

The harmonics in the middle of the verse:
D|---------------|
A|---5*----------|
F|------5*-7*----|
C|---------------|
G|---------------|
C|---------------|

Intro Riff x4

Chorus

Pre-solo(once again may sound off without effects)
D|-----------------------------------|   |---------------------------|
A|-----------------------------------|   |---------------------------|
F|-----------------------------------|   |---------------------------|
C|-----------------------------------|   |---------------------------|
G|-----------5-5---------5-5-3-3-3---|   |---------------------------|
C|---0-0-5h7-----0-0-5h7-------------|x3 |---0-0-5h7-0-5h7-0-5h7-15\-|x1

Sorry, no solo yet =(, if anyone has any ideas plz tell me

Verse

Chorus

Intro riff x7

Outro
D|----------------------------------|
A|----------------------------------|
F|----------------------------------|
C|---0-0-x-0-0-x-0-0-0-0-0-0-0-0----|
G|---0-0-x-0-0-x-0-0-0-0-0-0-0-0----|
C|---0-0-x-0-0-x-0-0-0-0-0-0-0-0----|





Comments


Popular 12 Stones tabs & chords
Adrenaline 1 Bass Tabs
Eric's Song Bass Tabs
Crash (Intro) Tabs
Home Tabs
Home 2 Tabs
Running Out Of Pain 1 Tabs
Stay 1 Tabs
Stay 2 Tabs
Tomorrow Comes Today 2 Tabs
We Are One 2 Tabs


Song lyrics



↑ Back to top | Tablatures and chords are parodies/interpretations of the original songs. You may use it for private study, scholarship, research or language learning purposes only
© 2014 AZChords.com Contact us | Privacy policy | DMCA | Add/correct tabs | Request tabs | Top 50 tabs